Gitaristu.ru
Аккорды Табулатура Начинающим Мастер-класс Софт Видео Форум Блог
Новости Анонсы Гитары Гитаристы Статьи Аватарки Минусовки
Поиск





Популярные подборы




Настройка гитары






Главная > Аккорды > B > British India

Аккорды
British India
-
Run The Red Light



Подбор прислал: gitaristu.ru
Declan plays chords

F(1):
e-----------------|
B-----------------|
G----10-----------|
D----10-----------|
A----8------------|
E-----------------|
And like a skull balloon
I believe in us
So put the pedal down
And turn your hobbies off
And I'd dial in your number hoping that your awake
It's a loss sometimes but that's the risk that I'll take
I believe in us
I believe in us

F (2 fr.):
e-------------------|
B-------------------|
G-------------------|
D--3----------------|
A--3----------------|
E--1----------------|
So put your diamonds up for auction

Bb
e-------------------|
B-------------------|
G-------------------|
D----8--------------|
A----8--------------|
E----6--------------|

But don't kiss me
I wont let you

F (2 fr.):
e-------------------|
B-------------------|
G-------------------|
D--3----------------|
A--3----------------|
E--1----------------|

Shout my name into the ocean

Bb
e-------------------|
B-------------------|
G-------------------|
D----8--------------|
A----8--------------|
E----6--------------|
But don't kiss me
I wont let you

C
e-------------------|
B-------------------|
G-------------------|
D----10-------------|
A----10-------------|
E----8--------------|
I believe in us


F (2 fr.):
e-------------------|
B-------------------|
G-------------------|
D--3----------------|
A--3----------------|
E--1----------------|
And any time that your walls start coming

Bb
e-------------------|
B-------------------|
G-------------------|
D----8--------------|
A----8--------------|
E----6--------------|
down I'll be there in the front seat Yelling


A
e-------------------|
B-------------------|
G-------------------|
D----7--------------|
A----7--------------|
E----5--------------|
run the red light
Run the red light
Run it

F (2 fr.):
e-------------------|
B-------------------|
G-------------------|
D--3----------------|
A--3----------------|
E--1----------------|
I hate the way that I don't say what I

Bb
e-------------------|
B-------------------|
G-------------------|
D----8--------------|
A----8--------------|
E----6--------------|
want What I want
Is the world what you want

Bb
e-------------------|
B-------------------|
G-------------------|
D----7--------------|
A----7--------------|
E----5--------------|
Run the red light
Run the red light
Run it ohh

So out of eden
Don't look back now
But don't touch me
I wont let you
Down in my town
Lay down girly
But don't touch me
I wont let you

I believe in us

And any time that your walls start coming down
I'll be there in the front seat
Yelling run the red light
Run the red light
Run it
I hate the way that I don't say what I want
What I want
Is the world what you want
Run the red light
Run the red light
Make some noise

So drive your car into the ocean
But don't kiss me
I wont let you
Make some headlines
Call your family
But don't touch me
I wont let you

Run the red light
Run it ohh

And any time that your walls start coming down
I'll be there in the front seat
Yelling run the red light
Run the red light
Run it
I hate the way that I don't say what I want
What I want
Is the world what you want
Run the red light
Run the red light
Run it

Run the red light
Run the red light
Run it

For the right time listen to the song, but it's quite simple;)
Расскажи друзьям!




Войдите, используя Ваш аккаунт:



Забыли пароль?
Зарегистрироваться

Привет, гитарист!

Пройди супер-курс по гитаре и порази всех своей игрой!

Забрать курс!
ВАМ ПОДАРКИ ОТ ПРОЕКТА
"ГИТАРНАЯ РЕВОЛЮЦИЯ"