Gitaristu.ru
Аккорды Табулатура Начинающим Мастер-класс Софт Видео Форум Блог
Новости Анонсы Гитары Гитаристы Статьи Аватарки Минусовки
Поиск





Популярные подборы




Настройка гитары






Главная > Аккорды > B > British India

Аккорды
British India
-
Run The Red Light bass (табулатура)



Подбор прислал: gitaristu.ru
Wait until slightly after vocalist Declan Melia starts then:

---------------------------|
---------------------------| until "but dont kiss me..." then:
---------------------------|
-11111111111111111111111111|

---------------------------|
---------------------------| X2 then back to:
-1111----------------------|
-------5555-3333-1111------|

---------------------------|
---------------------------| Until "but dont kiss me..."
---------------------------|
-1111111111111-------------|

---------------------------|            ----------|
---------------------------| X2 then:   ----------|   (Hold that C)
-1111----------------------|            -3--------|
-------5555-3333-1111------|            ----------|
                                Then:

---------------------------|
---------------------------|    Until he sings "DOWN, I'LL BE THERE"
---------------------------|    upon which you play:
-11111111111111------------|

---------------------------|
---------------------------|
-11111111111111------------| Until "RUN THE RED LIGHT RUN THE RED LIGHT..."
---------------------------| Where you play:

---------------------------|
---------------------------|
---------------------------|
-5--5-5--5--5-5-5--5--5-5--|

---------------------------|
---------------------------|    Until he sings "WANT, WHAT I WANT IS TO..."
---------------------------|    upon which you play:
-11111111111111------------|

---------------------------|
---------------------------|
-11111111111111------------| Until "RUN THE RED LIGHT RUN THE RED LIGHT..."
---------------------------| Where you play:

---------------------------|
---------------------------|
---------------------------|
-5--5-5--5--5-5-5--5--5-5--|

---------------------------|
---------------------------| until "but dont touch me..." then:
---------------------------|
-11111111111111111111111111|

---------------------------|
---------------------------| X2 then back to:
-1111----------------------|
-------5555-3333-1111------|

---------------------------|
---------------------------|    Until he sings "BUT, DONT TOUCH ME..."
---------------------------|    upon which you play:
-11111111111111------------|

---------------------------|            ---------|
---------------------------| X2 then:   ---------|  HOLD THAT C
-1111----------------------|            --3------|
-------5555-3333-1111------|            ---------|

---------------------------|
---------------------------|    Until he sings "DOWN, I'LL BE THERE"
---------------------------|    upon which you play:
-11111111111111------------|

---------------------------|
---------------------------|
-11111111111111------------| Until "RUN THE RED LIGHT RUN THE RED LIGHT..."
---------------------------| Where you play:

---------------------------|
---------------------------|
---------------------------|
-5--5-5--5--5-5-5--5--5-5--|

---------------------------|
---------------------------|    Until he sings "WANT, WHAT I WANT IS TO..."
---------------------------|    upon which you play:
-11111111111111------------|

---------------------------|
---------------------------|
-11111111111111------------| Until "RUN THE RED LIGHT RUN THE RED LIGHT..."
---------------------------| Where you play:

---------------------------|
---------------------------|
---------------------------|
-5--5-5--5--5-5-5--5--5-5--|

---------------------------|
---------------------------|
---------------------------|    Play this all through the solo then no bass
-11111111111111------------|    until "Make some headlines..."

---------------------------|
---------------------------|
---------------------------|    Play until "But dont touch me..."
-11111111111111------------|

---------------------------|
---------------------------|    Then hold that C again, then when he sings
-11111111111111------------|    "Run the red light run it, oh" play:
---------------------------|

---------------------------|
---------------------------|
---------------------------|    Play until "...Down,ill be there in.."
-11111111111111------------|    then play:

---------------------------|
---------------------------|
-11111111111111------------|    After playing this, play the chorus part:
---------------------------|

---------------------------|
---------------------------|
---------------------------|    Then repeat:
-5--5-5--5--5-5-5--5--5-5--|

-------------------------------------|
-------------------------------------|
-------------111111111---------------|
-1111111111--------------------------|

Then play:
---------------------------|             ----------|
---------------------------|             ----------|
---------------------------|    X 2 then ----------|
-5--5-5--5--5-5-5--5--5-5--|             -5/1------|

Fantastic song, from my favourite band, enjoy it as much as i did
Tom Carroll
Расскажи друзьям!




Войдите, используя Ваш аккаунт:



Забыли пароль?
Зарегистрироваться

Привет, гитарист!

Пройди супер-курс по гитаре и порази всех своей игрой!

Забрать курс!
ВАМ ПОДАРКИ ОТ ПРОЕКТА
"ГИТАРНАЯ РЕВОЛЮЦИЯ"