Gitaristu.ru
Аккорды Табулатура Начинающим Мастер-класс Софт Видео Форум Блог
Новости Анонсы Гитары Гитаристы Статьи Аватарки Минусовки
Поиск





Популярные подборы




Настройка гитары






Главная > Аккорды > B > Brotha Lynch Hung

Аккорды
Brotha Lynch Hung
-
Return Of Da Baby Killa bass (табулатура)



Подбор прислал: gitaristu.ru
Upon hearing the bass to this song, I absolutely needed to know how to play it.

This tab is for the most part correct. I'm awful at playing by ear and this is pretty
my first attempt at tabbing anything. There's probably a bar or two that I left out, but I
up on it all and in the end this is what I had.

Verse bassline:
G||----------------------------|----------------------------|
D||----------------6--18----6--|----------------4--16----4--|
A||----------------------------|----------------------------|
E||--2-4------2-4--------------|--2-4------2-4--------------|

There's more than one way to get those higher notes. You could either slide all the way
use a pitch shifter pedal set to an octave up, or you can use your picking hand to
on (or tap) the high note, which is what I do.


Chorus bassline:
---------------------------------|---------------------------------|
---------------------------------|---------------------------------|
--------2---4---6---4---2--4-2-4-|--------2---4---6---4---2--2---2-|
--2-4----------------------------|--2-4------------------------4---|


This was the harder part for me. The last few notes of each bar were hard to decipher
me. I tried listening to the best of my ability and honestly the first bar of the chorus
like the first bar I have tabbed above, and the rest of the chorus bars sound more like 
second one.

Also, at a certain part in the chorus, there's a bar where the last half is a bit higher
the other. One instance of it occurs at around 1:12 in the song and I'm pretty sure it
like this:

-------------------------------|
--------------------4----------|
--------2---4---6--------6-4-6-|
--2-4--------------------------|

And yeah, that's that. Hope this helps.
Расскажи друзьям!




Войдите, используя Ваш аккаунт:



Забыли пароль?
Зарегистрироваться

Привет, гитарист!

Пройди супер-курс по гитаре и порази всех своей игрой!

Забрать курс!
ВАМ ПОДАРКИ ОТ ПРОЕКТА
"ГИТАРНАЯ РЕВОЛЮЦИЯ"