Gitaristu.ru
Аккорды Табулатура Начинающим Мастер-класс Софт Видео
Новости Анонсы Гитары Гитаристы Статьи Аватарки Минусовки
Поиск



Популярные подборы




Настройка гитары






Главная > Аккорды > C > Christina Aguilera

Аккорды
Christina Aguilera
-
Beautiful (табулатура)

Не нашли аккорды к песне? Посмотрите на


Подбор прислал: gitaristu.ru



Date: Wed, 29 Jan 2003 16:43:12 -0600 (CST)
From: alfredo ramirez 
Subject: a/aguilera_christina/beautiful.tab


Tabbed by: Alfredo Ramirez

Beautiful/Christina Aguilera

This is a really BEAUTIFUL song, I donґt like the music of christina
before stripped, only the boleros from her other works, but this song is
really good, for this song I use a capo in the first fret, all the chords
are relative to the capo, any comments or corrections:
freddy_jarf81@yahoo.com

[intro:]

repeat this pattern along the song, in the chorus you can strumed the
chords.

D                        D7                                
|-2---2---2----2------2-|-2---2---2---2-----|              
|-3---3---3----3----3---|-1---1---1---1-----|                
|---2---2---2---2-2-----|---2---2---2---2---|              
|-0---0---0---0---------|-0---0---0---0-----|              
|-----------------------|-------------------|               
|-----------------------|-------------------|

Em                    C7/9                                 
|--------------------|-------------------0---|             
|-0---0----0---0-----|-3---3---3---3----3-3--|             
|-0---0----0---0-----|-3---3---3---3---3---3-|             
|---2---2----2---2---|---2---2---2---2-------|             
|-2---0---0----0-----|-3---3---3---3---------|             
|--------------------|-----------------------|

[verse]

D                   D7                                 Everyday
is...............

Em                   C7/9                                  But
suddenly..................

D                      D7                                  Now and
then.....................

Em                     C7/9                               From all the
fame.....................

[chorus]

G                         Em                                 I am
beautiful........................

D      D7       Em                                                             
Words canґt...........................

G                   Em           

Iґm beautiful....................

D D7 Em

Words canґt.....................

G

So donґt you........................

D

Today

[intro]

[verse 2]

[chorus]

[interlude]

(same chords from the verse, listen the song )

no matter what.....................

[chorus]

[intro 2 times]

finish with:

D D7

|-2---2---2----2------2-|----2----|                        
|-3---3---3----3----3---|----1----|                         
|---2---2---2---2-2-----|----2----|                         
|-0---0---0---0---------|----0----|                        
|-----------------------|---------|                        
|-----------------------|---------|

 

D D7 Em C7/9 G

|--2--|--2--|----|-----|--3--|                             
|--3--|--1--|----|--3--|--3--|                             
|--2--|--2--|----|--3--|-----|                             
|-----|-----|--2-|--2--|-----|                             
|-----|-----|--2-|--3--|--3--|                              
|-----|-----|----|-----|--2--|

Good luck          


Другие подборы этого исполнителя

Расскажи друзьям!




Привет, гитарист!

Пройди супер-курс по гитаре и порази всех своей игрой!

Забрать курс!
ВАМ ПОДАРКИ ОТ ПРОЕКТА
"ГИТАРНАЯ РЕВОЛЮЦИЯ"