Gitaristu.ru
Аккорды Табулатура Начинающим Мастер-класс Софт Видео
Новости Анонсы Гитары Гитаристы Статьи Аватарки Минусовки
Поиск



Популярные подборы




Настройка гитары






Главная > Аккорды > C > Coldplay

Аккорды
Coldplay
-
Lovers In Japan Acoustic (табулатура)

Не нашли аккорды к песне? Посмотрите на


Подбор прислал: gitaristu.ru
HI I'm Luigi from Casapesenna ITALY and this is my tab for you.........

                            SONG:LOVERS IN JAPAN
                            bY COLDPLAY
Tuning - Standard

Intro
e|------------------------|
B|--15---12----8----7---5-|
G|--12----9----7----7---5-|
D|--14---10----9----7---5-|2x
A|------------------------|
E|------------------------|

verse

e----5--5--5--7--5-5--5--7--5--------|
B----3--3--3--3--3-3--3--3--3---X2---|
G----0--0--0--0--0-0--0--0--0--------|
D------------------------------------|
A------------------------------------|
E------------------------------------|

e----5--5--5--7--5-5--5--7--5--------|
B----3--3--3--3--3-3--3--3--3---X2---|
G----0--0--0--0--0-0--0--0--0--------|
D----0--0--0--0--0-0--0--0--0--------|
A------------------------------------|
E------------------------------------|

e----5--5--5--7--5-5--5--7--5--------|
B----3--3--3--3--3-3--3--3--3---X2---|
G----0--0--0--0--0-0--0--0--0--------|
D----x--x--x--x--x-x--x--x--x--------|
A----3--3--3--3--3-3--3--3--3--------|
E------------------------------------|

e----5--5--5--7--5-5--5--7--5--------|
B----3--3--3--3--3-3--3--3--3---X2---|
G----0--0--0--0--0-0--0--0--0--------|
D------------------------------------|
A------------------------------------|
E------------------------------------|

chorus

   em7                   cadd9             Gsus2                  D
e---0---------------|------0-------|------0-0-0-0-0-0-0-0-0----|---2---|-----|
B---3---------------|------3-------|------3-3-3-3-3-3-3-3-3----|---3---|-----|
G---0---------------|------0-------|------2-2-2-4-2-2-2-4-2----|---2---|-X2--|
D---2---------------|------2-------|------0-0-0-0-0-0-0-0-0----|---0---|-----|
A---2---------------|------3-------|------x-x-x-x-x-x-x-x-x----|-------|-----|
E---0---------------|--------------|------3-3-3-3-3-3-3-3-3----|-------|-----|


                                                   Am7
e--0----------------|------2-------|-----0-------|---0---------|--2------|
B--3----------------|------3-------|-----3-------|---1---------|--3------|
G--0----------------|------2-------|-----0-------|---0---------|--2------|
D--2----------------|------0-------|-----2-------|---2---------|--0------|
A--2----------------|--------------|-----3-------|---0---------|---------|
E--0----------------|--------------|-------------|-------------|---------|

         Em7        Cadd9 Gsus2
They are turning my head  out
   D                Em7
To see what I'm all about
        Cadd9   Gsus2
Keeping my head down
   D                      Em7
To see what it feels like now
      D       Cadd9
But I have no doubt
Am7              D
One day, we are gonna get out


REPEAT VERSE

REPEAT CHORUS

outro
e---5----5-5-5-5----5----5-5-5-5----5----5-5-5-5----5----5-5-5-5------|
B---3-h5-5-5-5-5----3-h5-5-5-5-5----5-p3-3-3-3-3----5-p3-3-3-3-3------|
G---0----0-0-0-0----0----0-0-0-0----0----0-0-0-0----0----0-0-0-0------|
D-----------------------------------0----0-0-0-0----0----0-0-0-0------|X2
A---------------------------------------------------------------------|
E---------------------------------------------------------------------|

h:hammer on
p:pull off

Lovers, keep on the road you're on
Runners, until the race is run
Soldiers, you've got to soldier on
Sometimes even the right is wrong

They are turning my head out
To see what I'm all about
Keeping my head down
To see what it feels like now
But I have no doubt
One day, we are gonna get out

Tonight maybe we're gonna run
Dreaming of the Osaka sun
Ohh ohh...
Dreaming of when the morning comes

They are turning my head out
To see what I'm all about
Keeping my head down
To see what it feels like now
But I have no doubt
One day the sun will come out

Ooh...


REIGN OF LOVE
e-----------3-----------|
B-------------3---------|
G-----------------------|
D-----------------------|  ARPEGGIO
A--------2--------------|
E------3----------------|

Reign of love
I can

Другие подборы этого исполнителя

Расскажи друзьям!




Привет, гитарист!

Пройди супер-курс по гитаре и порази всех своей игрой!

Забрать курс!
ВАМ ПОДАРКИ ОТ ПРОЕКТА
"ГИТАРНАЯ РЕВОЛЮЦИЯ"