Gitaristu.ru
Аккорды Табулатура Начинающим Мастер-класс Софт Видео
Новости Анонсы Гитары Гитаристы Статьи Аватарки Минусовки
Поиск



Популярные подборы




Настройка гитары






Главная > Аккорды > C > Coldplay

Аккорды
Coldplay
-
Major Minus bass (табулатура)

Не нашли аккорды к песне? Посмотрите на


Подбор прислал: gitaristu.ru
-------------------------------------------------------------------------------
			     MAJOR MINUS - Coldplay
-------------------------------------------------------------------------------

Tabbed By: approximately 

Tuning: EADG (standard)


Pre-Chorus:

  And be careful when you're walking into view..
G|-----------------------------------------------|
D|-----------------------------------------------|
A|-------3--------------------------------/12----|
E|-----------------------------------------------|

  Just be careful when you're walking into view..
G|-----------------------------------------------|
D|-----------------------------------------------|
A|--------3--------------------------------/12---|
E|-----------------------------------------------|


Chorus:

G|-----------------------|
D|--14------------12-----|
A|----------12h14---14---|   x2, then
E|-----12----------------|

G|--------------------------------------------------------|
D|--------12--------12-----------12--------12-------------|
A|--12h14-----12h14----14--12h14-----12h14----14--12h14---|   x1
E|--------------------------------------------------------|


Bass pauses until the next pre-chorus.


Pre-Chorus:

  Hear the crocodiles ticking round the world
G|----------------------------------------------|
D|----------------------------------------------|
A|---------3----------------------------/12-----|
E|----------------------------------------------|

  Hear the crocodiles ticking, they go ticking round the world
G|-------------------------------------------------------------|
D|-------------------------------------------------------------|
A|---------3---------------------------/12---------------------|
E|-------------------------------------------------------------|


Chorus:

G|-----------------------|
D|--14------------12-----|
A|----------12h14---14---|   x2, then
E|-----12----------------|

G|--------------------------------------------------------|
D|--------12--------12-----------12--------12-------------|
A|--12h14-----12h14----14--12h14-----12h14----14--12h14---|   x1
E|--------------------------------------------------------|


  You could hear them climbing the stairs
G|----------------------------------------|
D|----------------------------------------|
A|----------3----------------------/12----|
E|----------------------------------------|

  Got my right side fighting while my left hides under the chairs
G|--------------------------------------------------------------|
D|--------------------------------------------------------------|
A|-------3----------------------------/12-----------------------|
E|--------------------------------------------------------------|


Pause and play this part when the drum starts playing again:

G|---------------------------------------------|
D|---------------------------------------------|
A|---------------------------------------------|
E|--12----10----8----------/12----10----8----8-|

Play the chorus part until you end on E


| /  slide up
| \  slide down
| h  hammer-on
| p  pull-off
| ~  vibrato
| +  harmonic
| x  Mute note
===============================================================================

Другие подборы этого исполнителя

Расскажи друзьям!




Привет, гитарист!

Пройди супер-курс по гитаре и порази всех своей игрой!

Забрать курс!
ВАМ ПОДАРКИ ОТ ПРОЕКТА
"ГИТАРНАЯ РЕВОЛЮЦИЯ"