Gitaristu.ru
Аккорды Табулатура Начинающим Мастер-класс Софт Видео
Новости Анонсы Гитары Гитаристы Статьи Аватарки Минусовки
Поиск



Популярные подборы




Настройка гитары






Главная > Аккорды > C > Coldplay

Аккорды
Coldplay
-
One i love (табулатура)

Не нашли аккорды к песне? Посмотрите на


Подбор прислал: gitaristu.ru



Date: Tue, 18 Feb 2003 13:02:55 -0600
From: abrower@siue.edu
Subject: c/coldplay/one_i_love.tab

tabbed by adam brower
abrower@siue.edu
standard tuning

chords
A x0222x
C x3x033 or x3x030
G 230033
D xxx230
F 133210
E 0220xx

intro

A   C   G   D   A

lead guitar intro riff 1

-----0-0-0-0-0-0-0-2-2-2-2-2-2-2-0-0-0-0-
-----------------------------------------
------------------------------------------
-----------------------------------------
-----------------------------------------
-----------------------------------------

play this for beginning verse (riff 2 )
----------------------------------------
--2-2-2-2--------------------------
--2-2-2-2--------------------------
--2-2-2-2-----------0----------0--
--0-0-0-0--------0----------0----
--------------3---------2--------

riff 2 play 4 X
could you, could you come back come back together


chorus
play 6x
play riff 1 after  4 x

A  C   G  D  A 
cause your the one i love
one i LOVE  

back to riff 2 repeat the chorus again

near end
A  F  E

lead end riff 3
----9--9--9--10--10--10--9--9--
---10-10-10--10--10--10-10-10--
-------------------------------
-------------------------------
-------------------------------
-------------------------------


Другие подборы этого исполнителя

Расскажи друзьям!




Привет, гитарист!

Пройди супер-курс по гитаре и порази всех своей игрой!

Забрать курс!
ВАМ ПОДАРКИ ОТ ПРОЕКТА
"ГИТАРНАЯ РЕВОЛЮЦИЯ"