Gitaristu.ru
Аккорды Табулатура Начинающим Мастер-класс Софт Видео
Новости Анонсы Гитары Гитаристы Статьи Аватарки Минусовки
Поиск



Популярные подборы




Настройка гитары






Главная > Аккорды > C > Coldplay

Аккорды
Coldplay
-
Only Superstition

Не нашли аккорды к песне? Посмотрите на


Подбор прислал: gitaristu.ru
#-----------------------------PLEASE NOTE-----------------------------#
# This file is the author's own work and represents their interpreta- #
#   tion of the song. You may only use this file for private study,   #
#                      scholarship, or research.                      #
#---------------------------------------------------------------------#

Band: Coldplay
Song: Only Superstition
Album: Brothers & Sisters EP
Words & Music: Guy Berrymen, Jon Buckland, Will Champion & Chris Martin
From: Zachary
E-mail: cicak_cobing@yahoo.com

Standard Tuning: EADGbe

Chords Used:

  C Am9 F G 
e| 0    0    1    3
b| 1    1    1    3
G| 0    2    2    0
D| 2    2    3    0
A| 3    0    3    2
E| 0    X    1    3

Note: Yeah, 4 chords only, I'm just trying to make it simple & basic so
      that everybody can understand it. What makes the song fantastic
      is because the electric guitar adds lots of 'flower' in it & the
      way Chris sings it. Enjoy! In the intro, the Cmaj just strum it
      once.

Intro:

C F

e|------------------------------------|
b|------------------------------------|
G|-----7h9---7-9-9p11-7-----7h9-------|
D|-9-9-----9------------7h9-----9-8-9-|
A|------------------------------------|
E|------------------------------------|

e|------------------------------------|
b|------------------------------------|
G|-----7h9---7-9-9p11-7-----7h9-------|
D|-9-9-----9------------7h9-----9-8-9-|
A|------------------------------------|
E|------------------------------------|

e|------------------------------------|
b|------------------------------------|
G|-----7h9---7-9-9p11-7-----7h9-------|
D|-9-9-----9------------7h9-----9-8-9-|
A|------------------------------------|
E|------------------------------------|

e|------------------------------------0-|
b|------------------------------------1-|
G|-----7h9---7-9-9p11-7-----7h9-------2-|
D|-9-9-----9------------7h9-----9-8-9-2-|
A|------------------------------------0-|
E|--------------------------------------|

Verse 1:

C        Am9
A cardboard head I see,

F          Am9
Has found its way to me,

C         Am9              C Am9
It

Другие подборы этого исполнителя

Расскажи друзьям!




Привет, гитарист!

Пройди супер-курс по гитаре и порази всех своей игрой!

Забрать курс!
ВАМ ПОДАРКИ ОТ ПРОЕКТА
"ГИТАРНАЯ РЕВОЛЮЦИЯ"