Gitaristu.ru
Аккорды Табулатура Начинающим Мастер-класс Софт Видео
Новости Анонсы Гитары Гитаристы Статьи Аватарки Минусовки
Поиск



Популярные подборы




Настройка гитары






Главная > Аккорды > C > Coldplay

Аккорды
Coldplay
-
Parachutes (табулатура)

Не нашли аккорды к песне? Посмотрите на


Подбор прислал: gitaristu.ru



Date: Sun, 12 Aug 2001 10:30:53 -0700 (PDT)
From: Alina Drusilla 
Subject: c/coldplay/parachutes.tab

++++++++++++++++++++++++++++++++++++++
performed by: coldplay
album: parachutes
song name: parachutes, track number 7
++++++++++++++++++++++++++++++++++++++
+MY OWN WORK+
+++++++++++++
tab made by AlinA, e-mail: alina_drusilla@yahoo.com

chords:

A:  577655
F#m:244222
Em: 022000
D:  000232

if you want to play it by chords, it goes like that:

A  F#m : A  F#m : Em Em : D     : X2 

That's basicly  the whole song....

TAB:

This part is played twice in the song. Once
instrumental, and once with words.
There is the whole part in a simple version.
The song is played with a classic guitar.

  A          F#m         A          F#m
e-----------:----------:-----------:----------:
B-----------:----------:-----------:----------:
G---6-------:--2-------:---6-------:--2-------:
D-------7---:------4---:-------7---:------4---:
A-7---7---7-:4---4---4-:-7---7---7-:4---4---4-:
E-----------:----------:-----------:----------:

  Em                       D
e-----------:-----------:------------:-----------:
B-----------:-----------:------------:-----------:
G---0-------:---0-------:----2-------:---2-----2-:
D---------2-:---------2-:----------0-:-----------:
A-2---2-2---:-2---2-2---:2-0---0-0---:-0---0-0---:
E-----------:-----------:------------:-----------:

If it sounds too simplified for you, you can add the
last bass string to every beginning of a chord. 
For example:

  A
e------------:
B------------:
G----6-------:
D--------7---:
A--7---7---7-:
E--5---------:
   ^
   ^
See that

One more thing: try to slide between the chords as it
in the song....

AlinA
Replies for my first tablature:
e-mail: alina_drusilla@yahoo.com


Другие подборы этого исполнителя

Расскажи друзьям!




Привет, гитарист!

Пройди супер-курс по гитаре и порази всех своей игрой!

Забрать курс!
ВАМ ПОДАРКИ ОТ ПРОЕКТА
"ГИТАРНАЯ РЕВОЛЮЦИЯ"