Gitaristu.ru
Аккорды Табулатура Начинающим Мастер-класс Софт Видео
Новости Анонсы Гитары Гитаристы Статьи Аватарки Минусовки
Поиск



Популярные подборы




Настройка гитары






Главная > Аккорды > C > Coldplay

Аккорды
Coldplay
-
Paradise bass (табулатура)

Не нашли аккорды к песне? Посмотрите на


Подбор прислал: gitaristu.ru
-------------------------------------------------------------------------------
     PARADISE - Coldplay
-------------------------------------------------------------------------------

Tabbed By : Alex
e-mail: 

Tuning: Standard

It's probably a synth that plays this, but it's fun to play it.

Intro 0:33
G|--------------------------|
D|--------------------------|
A|---------------8--8-----7-|
E|-653--356--6-8------5-6---|

G|-------------------------|
D|-------------------------|
A|---------------8--8------|
E|-653--356--6-8------56-8-|2x

01:42
When she was little girl...
G|-------------------------------|
D|-------------------------------|
A|-------------------------------|
E|-6~-5~--5~-3~--6~--/10~-10~-8~-|

Chorus for the rest of the song.
You'll hear yourself what parts to play on:
G|--------------------------|
D|--------------------------|
A|---------------8--8-----7-|
E|-653--356--6-8------5-6---|

G|-------------------------|
D|-------------------------|
A|---------------8--8------|
E|-653--356--6-8------56-8-|

Другие подборы этого исполнителя

Расскажи друзьям!




Привет, гитарист!

Пройди супер-курс по гитаре и порази всех своей игрой!

Забрать курс!
ВАМ ПОДАРКИ ОТ ПРОЕКТА
"ГИТАРНАЯ РЕВОЛЮЦИЯ"