Gitaristu.ru
Аккорды Табулатура Начинающим Мастер-класс Софт Видео
Новости Анонсы Гитары Гитаристы Статьи Аватарки Минусовки
Поиск



Популярные подборы




Настройка гитары






Главная > Аккорды > C > Coldplay

Аккорды
Coldplay
-
Politik (бас)

Не нашли аккорды к песне? Посмотрите на


Подбор прислал: gitaristu.ru



Date: Wed, 29 Oct 2003 20:10:43 -0800 (PST)
From: joel thurman 
Subject: c/coldplay/politik.btab


Artist: Coldplay

Album: A Rush Of Blood To The Head

Song: Politik

 

Tabbed by Joey (myownvividblood@yahoo.com)

 

Standard E, A, D, G tuning

 

Key

/ = Slide up

h = hammer on

r = rest

 

Chorus (0:03, 1:08 amp; 2:27-^УOpen up your eyes^Е^Ф)

 

G||----------------|----------------|----------------|----------------|

D||----------------|----------------|-3-3-3-3-3-3-3-3|-3-3-3-3-3-3-3-3|

A||-3-3-3-3-3-3-3-3|-3-3-3-3-3-3-3-3|----------------|----------------|

E||----------------|----------------|----------------|----------------|

 

G|----------------|----------------|----------------|----------------||

D|----------------|----------------|-3-3-3-3-3-3-3-3|-3-3-3-3-3-3-3h5||

A|-3-3-3-3-3-3-3-3|-3-3-3-3-3-3-3-3|----------------|----------------||

E|----------------|----------------|----------------|----------------||

 

Verse One (0:25-^УLook at earth^Е^Ф)

 

G|----------------|----------------||----------------|----------------||

D|----------------|----------------||----------------|----------------||

A|-3--------------|-r--------------||-r--------------|----------------||

E|----------------|----------------||----------------|----------------||

 

Verse Two (1:44-^УGive me one^Е^Ф)

 

G|----------------|----------------|----------------|----------------|

D|----------------|----------------|----------------|----------------|

A|-3--------------|-r--------------|----------------|---------------3|

E|----------------|----------------|----------------|----------------|

 

G|----------------|----------------|----------------|----------------|

D|----------------|----------------|-3--------------|-------6---6-5-3|

A|-/15r-----------|----------------|----------------|----------------|

E|----------------|----------------|----------------|----------------|

 

G||----------------|----------------|----------------|----------------||

D||----------------|----------------|-3--------------|-------6---6-5-3||

A||-3--------------|----------------|----------------|----------------||

E||----------------|----------------|----------------|----------------||

 

Bridge (2:51-^УBut give me love^Е^Ф)

 

G|----------------|

D|----------------|

A|-3--------------|

E|----------------|

 

G||----------------|----------------|----------------|----------------|

D||-3--------------|----------------|----------------|----------------|

A||----------------|----------------|-4--------------|----------------|

E||----------------|----------------|----------------|----------------|

 

G|----------------|----------------|----------------|----------------||

D|-6--------------|----------------|----------------|----------------||

A|----------------|----------------|-6--------------|----------------||

E|----------------|----------------|----------------|----------------||

 

Outro (4:04)

 

G||----------------|----------------|----------------|----------------|

D||-3-3-3-3-3-3-3-3|-3-3-3-3-3-3-3-3|----------------|----------------|

A||----------------|----------------|-4-4-4-4-4-4-4-4|-4-4-4-4-4-4-4-4|

E||----------------|----------------|----------------|----------------|

 

G|----------------|----------------|----------------|----------------||

D|-6-6-6-6-6-6-6-6|-6-6-6-6-6-6-6-6|----------------|----------------||

A|----------------|----------------|-6-6-6-6-6-6-6-6|-6-6-6-6-6-6-6-6||

E|----------------|----------------|----------------|----------------||

 

G|----------------|

D|-3--------------|

A|----------------|

E|----------------|

 

This is all my own work. Direct any questions/suggestions to
myownvividblood@yahoo.com.

________________________________________________________________________________


Другие подборы этого исполнителя

Расскажи друзьям!




Привет, гитарист!

Пройди супер-курс по гитаре и порази всех своей игрой!

Забрать курс!
ВАМ ПОДАРКИ ОТ ПРОЕКТА
"ГИТАРНАЯ РЕВОЛЮЦИЯ"