Gitaristu.ru
Аккорды Табулатура Начинающим Мастер-класс Софт Видео
Новости Анонсы Гитары Гитаристы Статьи Аватарки Минусовки
Поиск



Популярные подборы




Настройка гитары






Главная > Аккорды > C > Coldplay

Аккорды
Coldplay
-
Shiver (аккорды)

Не нашли аккорды к песне? Посмотрите на


Подбор прислал: gitaristu.ru



From: Robert LaGrasse 
Subject: c/coldplay/shiver.crd 
Date: Mon, 24 Jun 2002 15:00:09 -0400

c/coldplay/shiver.crd
Artist : Coldplay
Song : Shiver
Tabbed by : Robert LaGrasse (rlagrasse@seraphic-ns.com)


There are a couple of ways I've figured out to play this. This particular
version is standard tuning with no capo. The chords are open for the most 
part and give things an interesting sound. Hope you like it.


Intro (vary's depending on version)

  E x 8                 B  A  E  E  x2

e-0---------------------0--0--0--0-----------
B-0---------------------0--0--0--0-----------
G-9---------------------8--6--9--1-----------
D-9---------------------9--7--9--2-----------
A-7---------------------9--7--7--2-----------
E-0---------------------7--5--0--0-----------

  B   A   E   E     A    B    E

e-0---0---0---0-----0----0----0--------------------
B-0---0---0---0-----0----0----0---------------------
G-8---6---13--9-----6----8----1----------------------
D-9---7---14--9-----7----9----2----------------------
A-9---7---14--7-----7----9----2----------------------
E-7---5---0---0-----5----7----0---------------------

If I stuck a number by the E, it's where I play it. (There are 3 different
E's)

So into the verse and chorus stuff:

Verse:

     E(0)                                                   B
So I look ....                                         ...do you

    E(7)                                                    B
I know you don't ............ ...                    ...don't you



             C#m                                            F#7
But on and on...                                        ...sleep,

                                                     C#m
                                      ...try and stop me.

                                              B
                                         ...care


Bridge (you'll have to listen to the transitions as I can't post lyrics :)

               Barre                           Barre
     G#m        B           G#m                 B     G#m
Oh,  did you want me to change...

     Barre                          Barre
       B            G#m               B             G#m
                          ...you'll always get your way

    Barre
     B    G#m                 B    A     E(0)        B      A     E(0)
                    ...shiver                     shiver


B     A     E(12)
shiver

       A                    E(0)
I'll always be waiting for you.


Oh, other chords referenced above but not tabbed out.

C#m     G#m     F#7   B(Barre)

e-0------4-------6----7-or-2
B-5------4-------5----7-or-4
G-6------4-------6----8-or-4
D-6------6-------4----9-or-4
A-4------6-------4----9-or-2
E-x------4-------x----7-or-x

As always, comments and corrections are welcomed. Send 'em to me here:

Robert LaGrasse
CCIE #5044 (R/S amp; ISP/Dial)
CNX #1068 (E amp; T/R)
rlagrasse@seraphic-ns.com
www.seraphic-ns.com


Другие подборы этого исполнителя

Расскажи друзьям!




Привет, гитарист!

Пройди супер-курс по гитаре и порази всех своей игрой!

Забрать курс!
ВАМ ПОДАРКИ ОТ ПРОЕКТА
"ГИТАРНАЯ РЕВОЛЮЦИЯ"