Gitaristu.ru
Аккорды Табулатура Начинающим Мастер-класс Софт Видео
Новости Анонсы Гитары Гитаристы Статьи Аватарки Минусовки
Поиск



Популярные подборы




Настройка гитары






Главная > Аккорды > C > Coldplay

Аккорды
Coldplay
-
Shiver (бас)

Не нашли аккорды к песне? Посмотрите на


Подбор прислал: gitaristu.ru



Date: Sat,  6 Dec 2003 23:27:59 -0200
From: schmarotzer 
Subject: c/coldplay/shiver.btab

Man, it took me some time to figure out how to bass for
this amazing song. But here it is, finally, my first tab
ever, the amazing shiver bass tab.
It is really hard, but i did my best to explain exactly
what you should do. I hope you guys like this tab 

Standart Tuning (G, D, A, E)

Pre-riff a.k.a. Intro a.k.a. the part where you only hear
chris' acoustic guitar

---------------------------------------------------------- --------------
---------------------------------------------------------- --------------
---------7------7-----7-7----7-9-------7-----7-7----7-7--- -7-9---7-6----
---------------------------------------------------------- ------------7-

Riff played for the first time (cos the bass line is
different when jonny plays it for the second time)

----------------------------------------------
----------------------------------------------
-7--6------------------------------6-6-6-6----
-------2-----2--4-5----5-5-5--4-------------7-  X2

------------------------9-8-----
----6-7----7--7-7-7----------6--
-9------------------------------
--------------------------------

--------------------
--------------------
--------------------
--5---------7------0  

Другие подборы этого исполнителя

Расскажи друзьям!




Привет, гитарист!

Пройди супер-курс по гитаре и порази всех своей игрой!

Забрать курс!
ВАМ ПОДАРКИ ОТ ПРОЕКТА
"ГИТАРНАЯ РЕВОЛЮЦИЯ"