Gitaristu.ru
Аккорды Табулатура Начинающим Мастер-класс Софт Видео
Новости Анонсы Гитары Гитаристы Статьи Аватарки Минусовки
Поиск



Популярные подборы




Настройка гитары






Главная > Аккорды > C > Coldplay

Аккорды
Coldplay
-
Shiver (табулатура)

Не нашли аккорды к песне? Посмотрите на


Подбор прислал: gitaristu.ru



From: Mogk57@aol.com
Date: Sat, 29 Dec 2001 09:55:35 EST
Subject: c/coldplay/shiver.tab

Artist-Coldplay
Album- Parachutes
Song- Shiver (track 02)
transcribed by maria moggy koupari
email-mogk57@aol.com

This song is possibly my favourite of all time 
and when i had finally tabbed (all my own work)
and learnt to play this song I was over the
moon  It took me nearly 2 months to get this
song right so i hope all of you coldplay fans out
there appreciate it I used both the album version
and the Jo whiley Lunchtime Social acoustic version 
to figure out the melody,because you can hear finer 
detail in the acoustic version.This is quite a difficult
song to play and so for now i have only managed to get
the melody right,but i am half way working through the 
chords so i'll post them when i'm finished.You will need
some quick fingering in this song which can take a while
to perfect but once you've got it down you'll be sorted.
Also the timing is crucial in this song, so i suggest 
that you learn all the riffs fluently and quick enough 
before you try to play along with the song otherwise you
will just get lost, have to start the song again and
eventually wear your CD player out  Don't worry if it 
isn't sounding right immediatly just keep listening to 
the song over and over until you have mastered it 
            Good Luck...

Standard Tuning- eBGDAE

Key-
h- Hammer on
/- slide
p- pull off

Intro-There are a couple of bars of chord B 
before the melody comes in.
e|-------------------------------------------------------
B|-------------------------------------------------------
G|-6h8-8-8-8-6-6-6h9-9-9-9-6-6-6h8-8-8-8-6-6/1-1-1-1/4/6-
D|-------------------------------------------------------
A|-------------------------------------------------------
E|-------------------------------------------------------

  ------------------------|
  ------------------------|
  -6h8-8-8-8-6-6-6h9-9-9-9|
  ------------------------|
  ------------------------|
  ------------------------|

 |-------------------------------------------------------
 |-------------------------------------------------------
 |-6-6-6h8-8-8-8-6-6/1-1-1-1/4/6-6h8-8-8-8-6-6-6h9-9-9-9-
 |-------------------------------------------------------
 |-------------------------------------------------------
 |-------------------------------------------------------

  -----------------------|
  -----------------------|
  -9/14-14-14-16-16-13/--|
  -----------------------|
  -----------------------|
  -----------------------|
 
 |---------------------------|
 |---------------------------|
 |-6/---------8/----------4--|
 |---------------------------|
 |---------------------------|
 |---------------------------|

Verse 1- melody is played in between the breaks in the 
lyrics (just listen to the song to get what i mean)

do you...........
    |----14----12------11------9------| 
    |-------------9-------9------9----|   
    |-11----11------11------11-----11-| 
    |---------------------------------| 
    |---------------------------------|  
    |---------------------------------|(x2) 

In these two riffs, i have left out a couple of
notes because a)it sounds good like this 
and b)it is just too complicted other wise 

don't you..............
    |----14----12------11------9------|  
    |-------------9-------9------9----|  
    |-11----11------11------11-----11-|  
    |---------------------------------|  
    |---------------------------------|
    |---------------------------------|(x2)

Pre-chorus 1:
 
 |-------------------------------------------------------
 |-------------------------------------------------------
 |-9-9-9-9-9--9p8-8/6-/1-/--9-9-9-9-9--9p8-8/6-/3--9-9-9-
 |-------------------------------------------------------
 |-------------------------------------------------------
 |-------------------------------------------------------

  --------------------------|
  --------------------------|
  -9-9--9p8-8/6-/1--9-9-9-9-|
  --------------------------|
  --------------------------|
  --------------------------|

 |--------------------------------------------------------
 |--------------------------------------------------------
 |-9--9p8-8-11-----9-9-9-9-9--9p8-8/6-/1-/--9-9-9-9-9-9p8-
 |-------------8-9----------------------------------------
 |--------------------------------------------------------
 |--------------------------------------------------------

  -------------------------|
  --------0---0-----0---0--|
  -8/6-/4---4---4/8---8----|
  -------------------------|
  -------------------------|
  -------------------------|


 |-------------------------------------------------------
 |------0----0-------0----0-------------4---------4------
 |-8/11---11---11/14---14---14--0-----4---4-----4---4----
 |-----------------------------------6-------6-5-------5-
 |-------------------------------------------------------
 |-------------------------------------------------------

  --------------------------|
  ----4---------4---------4-|
  --4---4-----4---4-----4---|
  -6-------6-5-------5-6----|
  --------------------------|
  --------------------------|
 
 |-------------------------------------------------------
 |---------4-----------4---------4---------4---------2---
 |-4-----4---4-------4---4-----4---4-----4---4-----4---4-
 |---6-5-------5-0-4-------4-2-------2-1-------4-5-------
 |-------------------------------------------------------
 |-------------------------------------------------------

  -------------------------|
  -------4---4-------------|
  -----4-4---4-------------|
  -5-3---3---2-------------|
  -------------------------|
  -------------------------|

Chorus 1: same riff as in intro- leads into verse 2

Verse 2: same as verse 1- leads into pre-chorus 2

Pre-chorus 2: same as pre-chorus 1- leads into chorus 2

Chorus: same as chorus 1- leads into bridge and guitar 
solo

Bridge:
(on the album version this bridge part is played twice)   
 |-9----11----12---9----11----12---9----11----12---9-
 |---12----12--------12----12--------12----12--------
 |---------------------------------------------------
 |---------------------------------------------------
 |---------------------------------------------------
 |--------------------------------------------------- 
        (solo begins at  )
  ----12---- -11-11-11/9-/7-/5-5-5-5-7---9-9-9-9-9-9-7
  -12----11- -0--0--0-----0--0------------------------
  ---------- -----------------------------------------
  ---------- -----------------------------------------
  ---------- -----------------------------------------
  ---------- -----------------------------------------

  -11-11-11/9-/7-/5-5-5-5-7---9-9-9-11---7---11-11-11/9-7-
  -0--0--0-----0--0--------------------------0--0--0----0-
  --------------------------------------------------------
  --------------------------------------------------------
  --------------------------------------------------------
  --------------------------------------------------------

  -/5-5-5-5-5-5-7------9--------------11--7-| 
  --0---------------------------------------| 
  ------------------------------------------|
  ------------------------------------------| 
  ------------------------------------------| 
  ------------------------------------------|

*The solo i have tabbed isn't entirely accurate,and can
instead be used as a guideline to composing your
own little piece. Just stick to this scale and it 
should sound ok. 

Outro:
so i look........
 |---------------------------------------------------------|
 |-9------12------9------12------9------12------9-------12-|
 |-11-----11------11-----11------11-----11------11------11-|
 |---------------------------------------------------------|
 |---------------------------------------------------------|
 |---------------------------------------------------------|
 
If you have any problems or corrections please don't
hesitate to contact me at Mogk57@aol.com
Bye
xxxxxx


Другие подборы этого исполнителя

Расскажи друзьям!




Привет, гитарист!

Пройди супер-курс по гитаре и порази всех своей игрой!

Забрать курс!
ВАМ ПОДАРКИ ОТ ПРОЕКТА
"ГИТАРНАЯ РЕВОЛЮЦИЯ"