Gitaristu.ru
Аккорды Табулатура Начинающим Мастер-класс Софт Видео
Новости Анонсы Гитары Гитаристы Статьи Аватарки Минусовки
Поиск



Популярные подборы




Настройка гитары






Главная > Аккорды > C > Coldplay

Аккорды
Coldplay
-
Sleeping Sun (табулатура)

Не нашли аккорды к песне? Посмотрите на


Подбор прислал: gitaristu.ru
  I tryed to be the most accurate possible. RS from Venezuela. Enjoy!

Standard Tuning
(Capo 1st Fret)
There's two guitars, so it doesn't sound exactly like the original.

-------------------------------------------------------------------

Intro (x2)
       D         D7 D     Dsus4   D7sus4 Dsus4           
|------2---2-2--2-2-2-------3---3-3--3-3-3-------------| 
|------1h3-3-3--3-1-3-------1h3-3-3--3-1-3-------------| 
|----2-2---2-2--2-2-2-----2-2---2-2--2-2-2-------------| 
|--0---0---0-0--0-0-0---0---0---0-0--0-0-0-------------| 
|------------------------------------------------------| 
|------------------------------------------------------| 
     Dsus4   D7sus4 Dsus4   D         D7 D               
|------3---3-3--3-3-3-------2---2-2--2-2-2-------------| 
|------1h3-3-3--3-1-3-------1h3-3-3--3-1-3-------------| 
|----2-2---2-2--2-2-2-----2-2---2-2--2-2-2-------------| 
|--0---0---0-0--0-0-0---0---0---0-0--0-0-0-------------| 
|------------------------------------------------------|
|------------------------------------------------------| 


Verse (x4)
       D          a        C          G
|------------------------------------------------------| 
|------3----------1--------1----------2----------------| 
|----2---2------2---2--------0------0------------------| 
|--0----------2----------2--------0--------------------| 
|-----------0----------3-------------------------------| 
|-------------------------------3----------------------| 

Climb up your mountain
Nineteen and countin'
You have got seven, I have got one

Blinded and hurtin'
This I'm deserving
I've got my secrets
You've only got the sleeping sun


Intro (x1)

Verse (x4)

When you've got a secret
Then you've got to keep it
When you've got a question
Answers will come

Running and hiding
Take and dividing
You've got your secrets
I've only got a sleeping sun


Intro (x2)  Sleeping sun


Chorus (x4) (just strum the verse chord)
    D    a    C    G                                     
|---2----0----0----3-----------------------------------| 
|---3----1----1----3-----------------------------------| 
|---2----2----0----0-----------------------------------| 
|---0----2----2----0-----------------------------------| 
|---0----0----3----2-----------------------------------| 
|---0----0----0----3-----------------------------------| 

Singing
Oooh um
Ohhhh oh...
Ahhh ahh
Oh oh
Oh oh
Oh ohh


Bridge (x4)
       D         D7 D                                    
|------2---2-2--2-2-2----------------------------------| 
|------1h3-3-3--3-1-3----------------------------------| 
|----2-2---2-2--2-2-2----------------------------------| 
|--0---0---0-0--0-0-0----------------------------------| 
|------------------------------------------------------| 
|------------------------------------------------------| 


Verse (x4)

And you, as I, saw
A piece in a jigsaw
Run up and around it and
Jump up real tall.

Run round the houses,
North and the souths'
You've got your answers we've
Only got a sleeping sun.


Intro (x2)  Sleeping sun


Chorus (x4)

Singing
Oooh um
Ohhhh oh...
Ahhh ahh
Oh oh
Oh oh
Oh ohh


   Appreciate the comments and suggestions -- cra_zsaw@hotmail.com

Другие подборы этого исполнителя

Расскажи друзьям!




Привет, гитарист!

Пройди супер-курс по гитаре и порази всех своей игрой!

Забрать курс!
ВАМ ПОДАРКИ ОТ ПРОЕКТА
"ГИТАРНАЯ РЕВОЛЮЦИЯ"