Gitaristu.ru
Аккорды Табулатура Начинающим Мастер-класс Софт Видео
Новости Анонсы Гитары Гитаристы Статьи Аватарки Минусовки
Поиск



Популярные подборы




Настройка гитары






Главная > Аккорды > C > Coldplay

Аккорды
Coldplay
-
Sleeping Sun bass (табулатура)

Не нашли аккорды к песне? Посмотрите на


Подбор прислал: gitaristu.ru
-------------------------------------------------------------------------------
			   Sleeping Sun - Coldplay
-------------------------------------------------------------------------------

Tabbed By : dvanwyk
e-mail: dustinvanwyk@yahoo.com

 Tuning:Standard
 Verse x4 (Start at 0.17)
G|-----------------------------------------------------------------------------------|
D|13~----11~-------------------------------------------------------------------------|
A|---13~----11~----------------------------------------------------------------------|
E|-----------------------------------------------------------------------------------|
 Break(Play no bass),then Come in again at 0.44)x4
 G|----------------------------------------------------------------------------------|
D|13~----11~-------------------------------------------------------------------------|
A|---13~----11~----------------------------------------------------------------------|
E|-----------------------------------------------------------------------------------|
 Pre-Chorus x2
G|-------------------------------------------------------------------------------------|
D|-------------------------------------------------------------------------------------|
A|6~-6~-6~-6~--------------------------------------------------------------------------|
E|-------------------------------------------------------------------------------------|
 Chorus x2
G|--------------------------------------------------------------|
D|-----------46-------------46------------46-------------46-----|
A|4h6-666-66-----4h6-666-66----4h6-666-66-----4h6-666-66----6~--|
E|--------------------------------------------------------------|

 Break(No Bass)
 Verse x4 (Start at 1.46)
G|-----------------------------------------------------------------------------------|
D|13~----11~-------------------------------------------------------------------------|
A|---13~----11~----------------------------------------------------------------------|
 Break(No Bass)
 Pre-Chorus
E|--------------------------------------------|
G|--------------------------------------------|
D|--------------------------------------------|
A|4h66666666-4h66666666-4h66666666-4h6666666--|
E|--------------------------------------------|

  Chorus x2
G|--------------------------------------------------------------|
D|-----------46-------------46------------46-------------46-----|
A|4h6-666-66-----4h6-666-66----4h6-666-66-----4h6-666-66----6~--|
E|--------------------------------------------------------------|

 Outro
G|-----------------------------------------------|
D|-----6----------6----------6----------6--------|
A|6-6-9-4-4--6-6-9-4-4--6-6-9-4-4--6-6-9-4-4-6~--|
E|-----------------------------------------------|


| /  slide up
| \  slide down
| h  hammer-on
| p  pull-off
| ~  vibrato
| +  harmonic
| x  Mute note
===============================================================================

Другие подборы этого исполнителя

Расскажи друзьям!




Привет, гитарист!

Пройди супер-курс по гитаре и порази всех своей игрой!

Забрать курс!
ВАМ ПОДАРКИ ОТ ПРОЕКТА
"ГИТАРНАЯ РЕВОЛЮЦИЯ"