Gitaristu.ru
Аккорды Табулатура Начинающим Мастер-класс Софт Видео
Новости Анонсы Гитары Гитаристы Статьи Аватарки Минусовки
Поиск



Популярные подборы




Настройка гитары






Главная > Аккорды > C > Coldplay

Аккорды
Coldplay
-
Talk (табулатура)

Не нашли аккорды к песне? Посмотрите на


Подбор прислал: gitaristu.ru



Date: Wed, 28 Jun 2006 18:28:44 -0400
From: Nathaniel M Nelson 
Subject: c/coldplay/talk.tab

Artist : Coldplay
Title : Talk
Album : Xamp;Y

Tabbed by Nathaniel Nelson (xatmes@comcast.net)
Feel free to email me comments or corrections.

Capoed on the first fret...

Verse:

[D]Oh brother...[F#m] [A] [D] [F#m] [A]
[D]I've been trying... [F#m] [A] [D] [E]
[D]Oh brother ..[F#m][A]  [D]  [F#m] [A]
[D]I'm so scared.. [F#m] [A] [D] [E]
[D] [E]  [F#m]

Chorus:

[D]You can take...[F#m][A] [D]  [F#m]  [A]
[D]In the future wh[F#m] [A]  [D]  [F#m]   [A]
[D]You can climb ...[F#m] [A] [D]  [F#m]  [A]
[D]Or a write a ...[F#m] [A] [D] [E] [F#m]                                     

Verse 2 pattern is identical...

Second/third chorus are identical except for last line is:

[D]Or write a song [F#m] [A] [D]Or do... [E] [D]Or do... [E]  [F#m]

Instrumental part:
Bm - D - F#m - E x4  --   D  F#m A x3  --  D  E

This is the easiest way I've found to play the solo guitar part during
the instrumental ..Repeat this 2x

11-11-11-11-11-11-11-11-|10-10-10-10-10-----------------
--8--8--8--8--8--8--8--8|--8--8--8--8--8-11-8-10-11-10-8
------------------------|-------------------------------
------------------------|-------------------------------
------------------------|-------------------------------
------------------------|-------------------------------

And repeat this 4x 

------------------------|-------------------------------
------------------------|-------------------------------
5b6p3-----5b6p3---------|-5b6p3------5b6p3--------------
------------------------|-------------------------------
------------------------|-------------------------------
------------------------|-------------------------------



CHORUS ELECTRIC GUITAR:
I've seen a few tabs that have the right notes but are needlessly 
complicated...here is the right way to play it in my opinion.  
Basically just barre the 15th fret and you'll never have to move your hand.

------------------------|----------------------
16-16-16-16-16-16-16-16-|15-15-15-15-----------
15-15-15-15-15-15-15-15-|15-15-15-15-----------
------------------------|----------------------
------------------------|----------------------
------------------------|----------------------

---15-------------------|----------------------
------18----15----------|------15--------------
15-------------17-------|15-17-----------------
------------------------|---------17-----------
------------------------|----------------------
------------------------|----------------------

------------------------|----------------------
16-16-16-16-16-16-16-16-|15-15-15-18----------
15-15-15-15-15-15-15-15-|15-15-15-15-----------
------------------------|----------------------
------------------------|----------------------
------------------------|----------------------

---15-------------------|----------------------
------18----15----------|------15--------------
15-------------17-------|15-17-----------------
------------------------|---------17-----------
------------------------|----------------------
------------------------|----------------------

------------------------|----------------------
16-16-16-16-16-16-16-16-|15-15-15-15-----------
15-15-15-15-15-15-15-15-|15-15-15-15-----------
------------------------|----------------------
------------------------|----------------------
------------------------|----------------------

---15-------------------|----------------------
------18----15----------|------15--------------
15-------------17-------|15-17-----------------
------------------------|---------17-----------
------------------------|----------------------
------------------------|----------------------

------------------------|----------------------
16-16-16-16-16-16-16-16-|15-15-15-18----------
15-15-15-15-15-15-15-15-|15-15-15-15-----------
------------------------|----------------------
------------------------|----------------------
------------------------|----------------------


------------------------|----------------------
15-------------15-15-15-|15--------------------
------------------------|---17-----------------
---17-------------------|--------19-15---------
------------------------|----------------------
------------------------|----------------------

and add this after the 2nd and 3rd chorus...

------------------------|----------------------
15-------------15-15-15-|15--------------------
------------------------|---17-----------------
---17-------------------|--------19-15-------17
------------------------|-----------------17---
------------------------|----------------------


Другие подборы этого исполнителя

Расскажи друзьям!




Привет, гитарист!

Пройди супер-курс по гитаре и порази всех своей игрой!

Забрать курс!
ВАМ ПОДАРКИ ОТ ПРОЕКТА
"ГИТАРНАЯ РЕВОЛЮЦИЯ"