Gitaristu.ru
Аккорды Табулатура Начинающим Мастер-класс Софт Видео
Новости Анонсы Гитары Гитаристы Статьи Аватарки Минусовки
Поиск



Популярные подборы




Настройка гитары






Главная > Аккорды > C > Coldplay

Аккорды
Coldplay
-
The Goldrush bass (табулатура)

Не нашли аккорды к песне? Посмотрите на


Подбор прислал: gitaristu.ru
-------------------------------------------------------------------------------
			     THE GOLDRUSH - Coldplay
-------------------------------------------------------------------------------


Tabbed By : Alex
e-mail: 

Tuning: Standard


Aah, we're digging for gold
G|-------|
D|-------|
A|-------|
E|-1-11--|7x

G|------------------------------|
D|------------------------------|
A|----1/9\5-5-55----------------|
E|-1-1-----------6-66-1-11-1-11-|

G|---------------------------|
D|---------------------------|
A|-1/9\5-5-55----------------|
E|------------6-66-1-11-1-11-|

G|-------------------|
D|-------------------|
A|-1/9\5-5-55--------|
E|------------6-66-1-|

These riffs are played all the time. Sometimes at different times, 
but still only these.

| /  slide up
| \  slide down
| h  hammer-on
| p  pull-off
| ~  vibrato
| +  harmonic
| x  Mute note
===============================================================================

Другие подборы этого исполнителя

Расскажи друзьям!




Привет, гитарист!

Пройди супер-курс по гитаре и порази всех своей игрой!

Забрать курс!
ВАМ ПОДАРКИ ОТ ПРОЕКТА
"ГИТАРНАЯ РЕВОЛЮЦИЯ"