Gitaristu.ru
Аккорды Табулатура Начинающим Мастер-класс Софт Видео
Новости Анонсы Гитары Гитаристы Статьи Аватарки Минусовки
Поиск



Популярные подборы




Настройка гитары






Главная > Аккорды > C > Coldplay

Аккорды
Coldplay
-
The scientist (аккорды)

Не нашли аккорды к песне? Посмотрите на


Подбор прислал: gitaristu.ru



Subject: c/coldplay/the_scientist.crd

Date: Wed, 26 Feb 2003 15:17:18 GMT
From: Djembe6677@aol.com
Date: Sun, 3 Nov 2002 20:57:10 +1300
From: David Moore , James Steer 
Date: 26 Feb 2003 15:20:12 +0000
From: James Steer jps56@cam.ac.uk
Date: 2 April 2003 11:51:00 +0000
From: Graham Dinsdale graham.dinsdale@tiscali.co.uk

Title: The Scientist
Artist: Coldplay
Album: A Rush Of Blood To The Head

Intro / Verses / Chorus: Dm, Bb, F, Gsus4add6 (a few times, then end on C at
end of chorus and let it ring)
Play the 8th fret of the e string in the transition between Bb and F
Pre-Chorus: Bb, F, Gsus4add6


Dm:

e|5
B|6
G|7
D|7
A|5
E|5

Bb:

e|6
B|6
G|7
D|8
A|8
E|6

F:

e|5
B|6
G|5
D|7
A|8
E|5

Gsus4add6 lol

e|3
B|1
G|0
D|2
A|x
E|3

C

e|8
B|8
G|9
D|10
A|10
E|8

Date: Sun, 20 Apr 2003 19:11:29 +0000
From: Paul Banker 
Subject: c/coldplay/the_scientist.crd

The Scientist, written by Coldplay, performed by Coldplay
Track four on A Rush Of Blood To The Head

-- This is a pretty cool song played by Chris Martin on the piano, but I 
figured out a cool acoustic version.  It's fairly simple.

verse
e-------------------------------------------------------------------
B-------------------------------------------------------------------
G-9----9----9----9--------------------------------------------------
D-9----9----9----9--------------------------------------------------
A-x----x----7----x--------------------------------------------------
E-9----5---------7--------------------------------------------------

I finger pick these four chords for the 1st verse, then strum these chords 
on the subsequent verses.  Listen to the cd for the words and chord changes.

chorus
e-------------------------------------------------------------------
B-------------------------------------------------------------------
G-9----9----9-----9-----9-------------------------------------------
D-9----9----9-----9-----9-------------------------------------------
A-x----0----7-----x-----x-------------------------------------------
E-9----x----x-----7-----9------------------------------------------

Finger pick again for these chorus.  Listen to the song for the changes.

Tabbed by Paul Banker.  Write me if you have any changes billymoon81@hotmail.com


Другие подборы этого исполнителя

Расскажи друзьям!




Привет, гитарист!

Пройди супер-курс по гитаре и порази всех своей игрой!

Забрать курс!
ВАМ ПОДАРКИ ОТ ПРОЕКТА
"ГИТАРНАЯ РЕВОЛЮЦИЯ"