Gitaristu.ru
Аккорды Табулатура Начинающим Мастер-класс Софт Видео
Новости Анонсы Гитары Гитаристы Статьи Аватарки Минусовки
Поиск



Популярные подборы




Настройка гитары






Главная > Аккорды > C > Coldplay

Аккорды
Coldplay
-
The scientist (бас)

Не нашли аккорды к песне? Посмотрите на


Подбор прислал: gitaristu.ru



Date: Mon, 27 Sep 2004 12:13:54 -0700 (PDT)
From: joel thurman 
Subject: c/coldplay/the_scientist.btab

Artist: Coldplay
Album: A Rush Of Blood To The Head
Song: The Scientist
Tabbed by Joey (myownvividblood@yahoo.com)
 
Standard E, A, D, G tuning, common 4/4 timing.
 
==========================================================================
 
Intro Rest
 
Verse (2:17-I was...)
 
G  ||----------------|----------------|
D 4||----------------|----------------|
A -||-5-5-5-5-5-5-5-5|----------------|
E 4||----------------|-6-6-6-6-6-6-6-6|
 
G|----------------|----------------||
D|----------------|----------------||
A|-8-8-8-8-8-8-8-8|-8-8-8-8-8-8-8-8||
E|----------------|----------------||
 
G|----------------|----------------|
D|----------------|----------------|
A|-5-5-5-5-5-5-5-5|----------------|
E|----------------|-6-6-6-6-6-6-6-6|
 
G|----------------|----------------|
D|----------------|----------------|
A|-8-8-8-8-8-8-8-8|-8-8-8-8-7-7-7-7|
E|----------------|----------------|
 
Chorus (3:10-Nobody...)
 
G||----------------|----------------|
D||----------------|----------------|
A||----------------|----------------|
E||-6-6-6-6-6-6-6-6|-6-6-6-6-6-6-6-6|
 
G|----------------|----------------||
D|----------------|----------------||
A|-8-8-8-8-8-8-8-8|-8-8-8-8-8-8-8-8||
E|----------------|----------------||
 
G|----------------|----------------|
D|----------------|----------------|
A|-3-3-3-3-3-3-3-3|-3--------------|
E|----------------|----------------|
 
Bridge (3:42)
 
G|----------------|----------------|
D|----------------|----------------|
A|-8-8-8-8-8-8-8-8|----------------|
E|----------------|-6-6-6-6-6-6-6-6|
 
G|----------------|----------------|
D|----------------|----------------|
A|-8-8-8-8-8-8-8-8|-8-8-8-8-8-8-8-8|
E|----------------|----------------|
 
Outro (3:55-Oooh...)
 
G||----------------|----------------|
D||----------------|----------------|
A||-5-5-5-5-5-5-5-5|----------------|
E||----------------|-6-6-6-6-6-6-6-6|
 
G|----------------|----------------||
D|----------------|----------------||
A|-8-8-8-8-8-8-8-8|-8-8-8-8-8-8-8-8||
E|----------------|----------------||
 
G|----------------|----------------|
D|----------------|----------------|
A|-5--------------|----------------|
E|----------------|-6--------------|
 
G|----------------|----------------|
D|----------------|----------------|
A|-8--------------|----------------|
E|----------------|----------------|
 
==========================================================================
 
This is all my own work. Suggestions/corrections welcome.

________________________________________________________________________________


Другие подборы этого исполнителя

Расскажи друзьям!




Привет, гитарист!

Пройди супер-курс по гитаре и порази всех своей игрой!

Забрать курс!
ВАМ ПОДАРКИ ОТ ПРОЕКТА
"ГИТАРНАЯ РЕВОЛЮЦИЯ"