Gitaristu.ru
Аккорды Табулатура Начинающим Мастер-класс Софт Видео
Новости Анонсы Гитары Гитаристы Статьи Аватарки Минусовки
Поиск



Популярные подборы




Настройка гитары






Главная > Аккорды > C > Coldplay

Аккорды
Coldplay
-
The scientist (табулатура)

Не нашли аккорды к песне? Посмотрите на


Подбор прислал: gitaristu.ru


-COLDPLAY-
-THE SCIENTIST-
Tabbed by a Saucepan

Chords
Am (002210)
F  (132211) or (xx0211)
C  (032010)
G  (320003)

Intro/Verse

e--0---0---0---0---1---1---1---1--3--0---0---0---
B--1---1---1---1---1---1---1---1-----1---1---1---
G----2---2---2---2---2---2---2---------0---0---0-
D------------------------------------------------
A------------------------------------------------
E------------------------------------------------

e--0---3---3---3---3---}
B--1---3---3---3---3---}
G----0---0---0---0---0-} AND REPEAT HOWEVER MUCH
D----------------------}  YOU NEED TO
A----------------------}
E----------------------}

e-------------------------------------------------
B-------------------------------------------------
G--2---2---2---2---2---2---2---2---0---0---0---0--
D--3---3---3---3---3---3---3---3---2---2---2---2--
A----3---3---3---3---3---3---3---3---3---3---3---3
E-------------------------------------------------
Nobody said it was easy...
e-------------------
B-------------------
G--2---2---2---2----
D--2---2---2---2----
A----0---0---0---0--
E-------------------

e-------------------------------------------------
B-------------------------------------------------
G--2---2---2---2---2---2---2---2---0---0---0---0--
D--3---3---3---3---3---3---3---3---2---2---2---2--
A----3---3---3---3---3---3---3---3---3---3---3---3
E-------------------------------------------------

e------------------------------------
B--1---1---1---1----3---3---3---3-5-6
G--2---2---2---2----0---0---0---0-0-0
D----2---2---2---2-------------------
A------------------------------------
E------------------------------------
                                     I'm going back to the start...

Then start strumming C  C  C  C  F  F  F  F G C  C  C  C  G  G  G  G

Then  Am  Am  Am  Am  F  F  F  F G C  C  C  C  G  G  G  G  as you sing the next verse, 
and then strum  F F F F F F F F C C C C Am Am Am Am for the next chorus and you're done


Другие подборы этого исполнителя

Расскажи друзьям!




Привет, гитарист!

Пройди супер-курс по гитаре и порази всех своей игрой!

Забрать курс!
ВАМ ПОДАРКИ ОТ ПРОЕКТА
"ГИТАРНАЯ РЕВОЛЮЦИЯ"