Gitaristu.ru
Аккорды Табулатура Начинающим Мастер-класс Софт Видео
Новости Анонсы Гитары Гитаристы Статьи Аватарки Минусовки
Поиск



Популярные подборы




Настройка гитары






Главная > Аккорды > C > Coldplay

Аккорды
Coldplay
-
Things I Dont Understand bass (табулатура)

Не нашли аккорды к песне? Посмотрите на


Подбор прислал: gitaristu.ru
Coldplay
Things I Dont Understand
X&Y(BONUS DVD)

INTRO

G-7/9-99-7--7/9-99-7--7/9-99-7--7/9-99-7--7/9-99-5--5/7-77-2--2-2222222222--|
D---------------------------------------------------------------------------|
A---------------------------------------------------------------------------|
E---------------------------------------------------------------------------|

G-7/9-99-7--7/9-99-7--7/9-99-7--7/9-99-7--7/9-99-5--5/7-77-2--2-2222222222--|
D---------------------------------------------------------------------------|
A---------------------------------------------------------------------------|
E---------------------------------------------------------------------------|

G-7/9-99-5--5/7-77-2--2-2222222222-------------|
D----------------------------------------------|
A----------------------------------------------|
E----------------------------------------------|


VERSE X2

G---------------------------------------------------------------------------|
D---------------------------------------------------------------------------|
A-00000000-77777777-00000000-77777777-00000000-77777777---------------------|
E-------------------------------------------------------55555555-00000000---|

PRE-CHORUS

G---------------------------------------------------------------------------|
D---------------------------------------------------------------------------|
A-00000000-77777777-00000000000000-00000000-77777777--0000000000000---------|
E---------------------------------------------------------------------------|


CHORUS

G---------------------------------------------------------------------------|
D---------------------------------------------------------------------------|
A-00000000-33333-5555-7777777777777777---00000000-33333-5555-88888888888888-|
E---------------------------------------------------------------------------|

G---------------------------------------------------------------------------|
D---------------------------------------------------------------------------|
A-00000000-33333-5555-7777777777777777---00000000-33333-5555-88888888888888-|
E---------------------------------------------------------------------------|

G---------------------------------------------------------------------------|
D---------------------------------------------------------------------------|
A--3----0-------------------------------------------------------------------|
E---------------------------------------------------------------------------|

INTRO

G-7/9-99-7--7/9-99-7--7/9-99-7--7/9-99-7--7/9-99-5--5/7-77-2--2-2222222222--|
D---------------------------------------------------------------------------|
A---------------------------------------------------------------------------|
E---------------------------------------------------------------------------|

G-7/9-99-5--5/7-77-2--2-2222222222-------------|
D----------------------------------------------|
A----------------------------------------------|
E----------------------------------------------|

VERSE X2

G---------------------------------------------------------------------------|
D---------------------------------------------------------------------------|
A-00000000-77777777-00000000-77777777-00000000-77777777---------------------|
E-------------------------------------------------------55555555-00000000---|

PRE-CHORUS

G---------------------------------------------------------------------------|
D---------------------------------------------------------------------------|
A-00000000-77777777-00000000000000-00000000-77777777--0000000000000---------|
E---------------------------------------------------------------------------|


CHORUS

G---------------------------------------------------------------------------|
D---------------------------------------------------------------------------|
A-00000000-33333-5555-7777777777777777---00000000-33333-5555-88888888888888-|
E---------------------------------------------------------------------------|

G---------------------------------------------------------------------------|
D---------------------------------------------------------------------------|
A-00000000-33333-5555-7777777777777777---00000000-33333-5555-88888888888888-|
E---------------------------------------------------------------------------|

G---------------------------------------------------------------------------|
D---------------------------------------------------------------------------|
A--3----0-------------------------------------------------------------------|
E---------------------------------------------------------------------------|

FINAL

G-7/9-99-7--7/9-99-7--7/9-99-7--7/9-99-7--7/9-99-5--5/7-77-2--2-2222222222--|
D---------------------------------------------------------------------------|
A---------------------------------------------------------------------------|
E---------------------------------------------------------------------------|

G-7/9-99-7--7/9-99-7--7/9-99-7--7/9-99-7--7/9-99-5--5/7-77-2--2-2222222222--|
D---------------------------------------------------------------------------|
A---------------------------------------------------------------------------|
E---------------------------------------------------------------------------|

G-7/9-99-5--5/7-77-2--2-2222222222-------------|
D----------------------------------------------|
A----------------------------------------------|
E----------------------------------------------|

G-7/9-99-5--5/7-77-2--2-2222222222-------------|
D----------------------------------------------|
A----------------------------------------------|
E----------------------------------------------|

G-7/9-99-5--5/7-77-2--2-2222222222-------------|
D----------------------------------------------|
A----------------------------------------------|
E----------------------------------------------|

Другие подборы этого исполнителя

Расскажи друзьям!




Привет, гитарист!

Пройди супер-курс по гитаре и порази всех своей игрой!

Забрать курс!
ВАМ ПОДАРКИ ОТ ПРОЕКТА
"ГИТАРНАЯ РЕВОЛЮЦИЯ"