Gitaristu.ru
Аккорды Табулатура Начинающим Мастер-класс Софт Видео
Новости Анонсы Гитары Гитаристы Статьи Аватарки Минусовки
Поиск



Популярные подборы




Настройка гитары






Главная > Аккорды > C > Coldplay

Аккорды
Coldplay
-
Til Kingdom Come bass (табулатура)

Не нашли аккорды к песне? Посмотрите на


Подбор прислал: gitaristu.ru
Note:READ: Repeat all as needed!!! and i used the guitar tab and put it all on the A 
and there is no bass in this but this sound good with it

Intro:


G------------|
D------------|
A-----3------|
E------------|


Verse 1:

   Steal my heart and hold my tongue

G-------------------------------|
D-------------------------------|
A--3-----5--7---------7----5--3-|
E-------------------------------|

   I feel my time, my time has come

G--------------------------------|
D--------------------------------|
A----3----5--7--------7----5---3-|
E--------------------------------|
   Let me in, un - lock the door

G-----------------------------|
D-----------------------------|
A--3---5--7--------7-----5--3-|
E-----------------------------|

  I've ne - ver felt this way be - fore
G------------------------------------|
D------------------------------------|
A------10---7---8----5----7---2----3-|
E------------------------------------|


Middle 8:

   The wheels just keep on turn - ing
G-----------------------------------|
D-----------------------------------|
A------12----------8--------------3-|
E-----------------------------------|

   The drummer be - gins to drum
G-----------------------------------|
D-----------------------------------|
A------12----------8--------------3-|
E-----------------------------------|

   I don't know which way I'm go - ing
G-----------------------------------|
D-----------------------------------|
A------12----------8--------------3-|
E-----------------------------------|

   I don't know which way I've come
G--------------------------------|
D--------------------------------|
A----------8---------10--------3-|
E--------------------------------|

(played over) Solo:

G------------------|
D------------------|
A--3--5--7--5--3---|
E------------------|

Verse 2:

   Hold my head in - side your hands
G-----------------------------|
D-----------------------------|
A--3---5--7--------7-----5--3-|
E-----------------------------|

   I need some - one who un - der - stands
G-----------------------------|
D-----------------------------|
A--3---5--7--------7-----5--3-|
E-----------------------------|

   I need some - one, some - one who hears
G-----------------------------|
D-----------------------------|
A--3---5--7--------7-----5--3-|
E-----------------------------|

   For you, I've wai - ted all these years
G------------------------------------|
D------------------------------------|
A------10---7---8----5----7---2----3-|
E------------------------------------|


Chorus:

   For you I'd wait, 'til kingdom come
G----------------------------|
D----------------------------|
A-----------8--------------3-|
E----------------------------|

   Until my day, my day is done
G----------------------------|
D----------------------------|
A-----------8--------------3-|
E----------------------------|

   And say you'll come and set me free
G------------------------------------|
D------------------------------------|
A-----------------8--------10-----12-|
E------------------------------------|

   Just say you'll wait,    you'll wait for me

G---------------------------------------------|
D---------------------------------------------|
A------------------10----8--------------------|
E---------------------------------------------|


(played over) Solo:


G------------------|
D------------------|
A--3--5--7--5--3---|
E------------------|


Verse 3:

   In your tears and in your blood
G-----------------------------|
D-----------------------------|
A--3---5--7--------7-----5--3-|
E-----------------------------|

   In your fire and in your flood
G-----------------------------|
D-----------------------------|
A--3---5--7--------7-----5--3-|
E-----------------------------|

   I heard you laugh, I heard you say
G-----------------------------|
D-----------------------------|
A--3---5--7--------7-----5--3-|
E-----------------------------|

   I would - n't change a  sin - gle thing
G------------------------------------|
D------------------------------------|
A------10---7---8----5----7---2----3-|
E------------------------------------|

Middle 8:

   The wheels just keep on turn - ing
G-----------------------------------|
D-----------------------------------|
A------12----------8--------------3-|
E-----------------------------------|
   The drummer be - gins to drum
G-----------------------------------|
D-----------------------------------|
A------12----------8--------------3-|
E-----------------------------------|

   I don't know which way I'm go - ing
G-----------------------------------|
D-----------------------------------|
A------12----------8--------------3-|
E-----------------------------------|

   I don't know what I've be - come

G--------------------------------|
D--------------------------------|
A----------8---------10--------3-|
E--------------------------------|

Chorus:

   For you I'd wait, 'til kingdom come
G----------------------------|
D----------------------------|
A-----------8--------------3-|
E----------------------------|

   Until my day, my day is done
G----------------------------|
D----------------------------|
A-----------8--------------3-|
E----------------------------|

   And say you'll come and set me free
G--------------------------------------------|
D--------------------------------------------|
A------------------10----8-------------------|
E--------------------------------------------|

   Just say you'll wait,    you'll wait for me
G--------------------------------------------|
D--------------------------------------------|
A------------------10----8-------------------|
E--------------------------------------------|


   Just say you'll wait,    you'll wait for me
G--------------------------------------------|
D--------------------------------------------|
A------------------10----8-------------------|
E--------------------------------------------|

Just say you'll wait,    you'll wait for me
G--------------------------------------------|
D--------------------------------------------|
A------------------10----8-------------------|
E--------------------------------------------|

By matty - of theres any problems leave a comment

Другие подборы этого исполнителя

Расскажи друзьям!




Привет, гитарист!

Пройди супер-курс по гитаре и порази всех своей игрой!

Забрать курс!
ВАМ ПОДАРКИ ОТ ПРОЕКТА
"ГИТАРНАЯ РЕВОЛЮЦИЯ"