Gitaristu.ru
Аккорды Табулатура Начинающим Мастер-класс Софт Видео
Новости Анонсы Гитары Гитаристы Статьи Аватарки Минусовки
Поиск



Популярные подборы




Настройка гитары






Главная > Аккорды > C > Coldplay

Аккорды
Coldplay
-
Till kingdom com (табулатура)

Не нашли аккорды к песне? Посмотрите на


Подбор прислал: gitaristu.ru



Date: Wed, 20 Jul 2005 15:57:53 +0200
From: DjEc 
Subject: c/coldplay/till_kingdom_com.tab

TITLE: Till Kingdom Come
ARTIST: Coldplay
ALBUM: Xamp;Y
AUTHOR: DjEc

Drop C tuning

Intro:

e|---------------|
B|---------5-----|
G|---------5-----|
D|---------5-----|
A|---------3-----|
C|-------0-------|



verse 1
e|---------------------------------|------------------------------------|
B|----5----x----x-------x-------x--|---------x----5-------5-------5-----|
G|----5----9----9-------9-------9--|----9----9----5-------5-------5-----|
D|----5----7----10------10------10-|----10---7----5-------5-------5-----|
A|----3----5----7-------7-------7--|----7----5----3-------3-------3-----|
C|----0-------0-------0-------0----|----0-------0-------0-------0-------|
      Steal my heart....                       and hold my time


verse 2
e|---------------------------------|------------------------------------|
B|---------------------------------|---------x----5-------5-------5-----|
G|----9----10---12------12------12-|----9----9----5-------5-------5-----|
D|----10---12---14------14------14-|----10---7----5-------5-------5-----|
A|----7----8----10------10------10-|----7----5----3-------3-------3-----|
C|----0-------0-------0-------0----|----0-------0-------0-------0-------|
     I feel my time....                 my time has come

     Play Verse 1

e|---------------------------------|------------------------------------|
B|----------------------------5----|------5-------5-------5-------5-----|
G|----12--9---10--9---9---4---5----|------5-------5-------5-------5-----|
D|----14--10--12--7---10--5---5----|------5-------5-------5-------5-----|
A|----10--7---8---5---7---2---3----|------3-------3-------3-------3-----|
C|----0-------0-------0-------0----|----0-------0-------0-------0-------|
     I never felt this way before


e|---------------------------------|------------------------------------|
B|--------------------5---------5--|--------------------5---------5-----|
G|----10------9-------5---------5--|----10------12------5---------5-----|
D|----12------7-------5---------5--|----12------14------5---------5-----|
A|----8-------5-------3---------3--|----8-------10------3---------3-----|
C|----0-------0-------0-------0----|----0-------0-------0-------0-------|
     and the wheels...                  the drummer begins

e|---------------------------------|------------------------------------|
B|--------------------5---------5--|----5---------------5---------5-----|
G|----14------12------5---------5--|----5-------9-------5---------5-----|
D|----15------14------5---------5--|----5-------7-------5---------5-----|
A|----12------10------3---------3--|----3-------5-------3---------3-----|
C|----0-------0-------0-------0----|----0-------0-------0-------0-------|
     i don't know...                    i don't know which way I've come


Verse 1 X 2
Verse 2


Chorus:

e|------5-------5-------5-------5--|------------------------------------|
B|------6-------6-------6-------6--|------5-------5-------5-------5-----|
G|------x-------x-------x-------x--|------5-------5-------5-------5-----|
D|------7-------7-------7-------7--|------5-------5-------5-------5-----| 2X
A|------8-------8-------8-------8--|------3-------3-------3-------3-----|
C|----5-------5-------5-------5----|----0-------0-------0-------0-------|
    For you I'd wait...                Till Kingdom Come


e|------5-------5-------5--------7-|------8-------8-------8-------8-----|
B|------6-------6-------6--------8-|-----10------10------10------10-----|
G|------x-------x-------x--------x-|------9-------9-------9-------9-----|
D|------7-------7-------7--------9-|-----10------10------10------10-----|
A|------8-------8-------8-------10-|----0-------0-------0-------0-------|
C|----5-------5-------5-------5/7--|------------------------------------
C||
        say you'll come...                      and set me free


e|-----12------12------10------10--|------------------------------------|
B|-----13------13------12------12--|------5-------5-------5-------5-----|
G|-----14------14------12------12--|------5-------5-------5-------5-----|
D|-----14------14------12------12--|------5-------5-------5-------5-----| 3X
A|----0-------0------10------10----|------3-------3-------3-------3-----|
C|---------------------------------|----0-------0-------0-------0-------|
        Just say you'll wait...                You'll wait for me



Cool tune, cool album, cool concert.
Greetz to the kids in Cowtown.
The call of the prairies is howling  


Другие подборы этого исполнителя

Расскажи друзьям!




Привет, гитарист!

Пройди супер-курс по гитаре и порази всех своей игрой!

Забрать курс!
ВАМ ПОДАРКИ ОТ ПРОЕКТА
"ГИТАРНАЯ РЕВОЛЮЦИЯ"