Gitaristu.ru
Аккорды Табулатура Начинающим Мастер-класс Софт Видео
Новости Анонсы Гитары Гитаристы Статьи Аватарки Минусовки
Поиск



Популярные подборы




Настройка гитары






Главная > Аккорды > C > Coldplay

Аккорды
Coldplay
-
Trouble (аккорды)

Не нашли аккорды к песне? Посмотрите на


Подбор прислал: gitaristu.ru



Date: Thu, 15 Mar 2001 15:32:12 -0500
From: =iso-8859-1qChristophe=20Girard= 
Subject: c/coldplay/trouble.crd

Artist: Coldplay
Song: Trouble
Album: Parachutes

transcribed March15, 2001 by Christophe Girard
(ch_girard@yahoo.fr)


For this song, I transcripted only the guitar chords
played above the piano.
It seems that the piano plays a Gadd9 chord rather
than a G for intro, verse and end parts...


Intro
     G           Em7         Bm7            
E||--3--------|--3--------|--2--------|
B||--3--------|--3--------|--3--------|
G||--4--------|--0--------|--2--------|
D||--5--------|--2--------|--4--------|
A||--5--------|--2--------|--2--------|
E||--3--------|--0--------|-----------|


Verse
     G         Em7       Bm7       F7M       Am
E||--3------|--3------|--2------|--0------|--0------|
B||--3------|--3------|--3------|--1------|--1------|
G||--4------|--0------|--2------|--2------|--2------|
D||--5------|--2------|--4------|--3------|--2------|
A||--5------|--2------|--2------|---------|--0------|
E||--3------|--0------|---------|---------|---------|


Chorus
      A                   Em7                       
E||---5----------------|--0----------------|
B||---5----------------|--3----------------|
G||---6----------------|--0----------------|
D||---7----------------|--2----------------|
A||---7----------------|--2----------------|
E||---5----------------|--0----------------|
 


End (they spun a web for me...)
     G           Em7         Bm7         Em7   
E||--3--------|--3--------|--2--------|--3--------|
B||--3--------|--3--------|--3--------|--3--------|
G||--4--------|--0--------|--2--------|--0--------|
D||--5--------|--2--------|--4--------|--2--------|
A||--5--------|--2--------|--2--------|--2--------|
E||--3--------|--0--------|-----------|--0--------|


Comments are welcome  

Christophe Girard
ch_girard@yahoo.fr


Другие подборы этого исполнителя

Расскажи друзьям!




Привет, гитарист!

Пройди супер-курс по гитаре и порази всех своей игрой!

Забрать курс!
ВАМ ПОДАРКИ ОТ ПРОЕКТА
"ГИТАРНАЯ РЕВОЛЮЦИЯ"