Gitaristu.ru
Аккорды Табулатура Начинающим Мастер-класс Софт Видео
Новости Анонсы Гитары Гитаристы Статьи Аватарки Минусовки
Поиск



Популярные подборы




Настройка гитары






Главная > Аккорды > C > Coldplay

Аккорды
Coldplay
-
Twisted Logic bass (табулатура)

Не нашли аккорды к песне? Посмотрите на


Подбор прислал: gitaristu.ru
Song: Twisted Logic
Band: Coldplay
Album: X&Y


Intro
G----------------------------|
D----3-----4-----9-----11----|  x2
A----------------------------|
E----------------------------|

Verse
G-----------------|
D-----------------|
A--6-6-6-6-64h6---| keep playing over and over again untill chorus
E-----------------|

Chorus
G---------------------------------------------------|
D-------------------------1-1-1-1-------------------|
A-2-2-2-2-2-2-4-4-4-4-4-4---------2-1---------------|
E-------------------------------------4-4-4-4-4-4---|

G---------------------------------------------------|
D--------------------------1-1-1-1-1-1-1-1-1-1-1-1--|
A--2-2-2-2-2-2-4-4-4-4-4-4--------------------------|
E---------------------------------------------------|

G---------------------------------------------------|
D-------------------------1-1-1-1-------------------|
A-2-2-2-2-2-2-4-4-4-4-4-4---------2-1---------------|
E-------------------------------------4-4-4-4-4-4---|

G---------------------------------------------------|
D-------------------------1-------------------------|
A-2-2-2-2-2-2-4-4-4-4-4-4---------------------------|
E---------------------------------------------------|

Verse
G-----------------|
D-----------------|
A--6-6-6-6-64h6---| keep playing over and over again untill chorus
E-----------------|

Prechorus
G----------------------------|
D----3-----4-----9-----11----|  x2
A----------------------------|
E----------------------------|

Chorus
G---------------------------------------------------|
D-------------------------1-1-1-1-------------------|
A-2-2-2-2-2-2-4-4-4-4-4-4---------2-1---------------|
E-------------------------------------4-4-4-4-4-4---|

G---------------------------------------------------|
D--------------------------1-1-1-1-1-1-1-1-1-1-1-1--|
A--2-2-2-2-2-2-4-4-4-4-4-4--------------------------|
E---------------------------------------------------|

G---------------------------------------------------|
D-------------------------1-1-1-1-------------------|
A-2-2-2-2-2-2-4-4-4-4-4-4---------2-1---------------|
E-------------------------------------4-4-4-4-4-4---|

G---------------------------------------------------|
D--------------------------1-1-1-1-1-1-1-1-1-1-1-1--|
A--2-2-2-2-2-2-4-4-4-4-4-4--------------------------|
E---------------------------------------------------|

G---------------------------------------------------|
D-------------------------1-1-1-1-------------------|
A-2-2-2-2-2-2-4-4-4-4-4-4---------2-1---------------|
E-------------------------------------4-4-4-4-4-4---|

G---------------------------------------------------|
D-------------------------1-------------------------|
A-2-2-2-2-2-2-4-4-4-4-4-4---------------------------|
E---------------------------------------------------|

Другие подборы этого исполнителя

Расскажи друзьям!




Привет, гитарист!

Пройди супер-курс по гитаре и порази всех своей игрой!

Забрать курс!
ВАМ ПОДАРКИ ОТ ПРОЕКТА
"ГИТАРНАЯ РЕВОЛЮЦИЯ"