Gitaristu.ru
Аккорды Табулатура Начинающим Мастер-класс Софт Видео
Новости Анонсы Гитары Гитаристы Статьи Аватарки Минусовки
Поиск



Популярные подборы




Настройка гитары






Главная > Аккорды > C > Coldplay

Аккорды
Coldplay
-
Violet Hill bass (табулатура)

Не нашли аккорды к песне? Посмотрите на


Подбор прислал: gitaristu.ru
VIOLET HILL
COLDPLAY 
VIVA LA VIDA OR DEATH AND ALL HIS FRIENDS
POR JOMALOLE(JOSUE,MEXICO)

VERSO
Clearly I remember...
G|-----------------------------------------------------------|
D|-----------------------------------------------------------| 
A|-4-4-4--2-6-2--4-4-4--2-6-2--------------------------------|
E|------4-------------4--------5-5-5-5-2-2-21-1-0------------|

PRECORO
When the future's architectured...
G|-----------------------------------------------------------|
D|-----------------------------------------------------------| 
A|---------2-2-2-2-4-4-4/9-2-2-2-2---------------------------|
E|-5-5-5-5---------------------------------------------------|

CORO
If you love me Won't you let me know? 
G|-------------------------------------------------------|
D|-------------------------------------------------------| 
A|----------4~--2~-4-4-4-4-------------------------------|
E|-4~-5~--8~--2------------------------------------------|

VERSO2
Was a long and dark December...
G|-----------------------------------------------------------------|
D|----------------------------7h10-7h10-11--7h10-11----------------| 
A|-4-4-4--2-6-2--4-4-4--2-6-2--------------------------------------|
E|------4-------------4------------------------------2-2-21-1-0----|

G|-----------------------------------------------------------------|
D|----------------------------7h10-7h10-11--7h10-11----------------| 
A|-4-4-4--2-6-2--4-4-4--2-6-2--------------------------------------|
E|------4-------------4------------------------------2-2-21-1-0----|

PRECORO2
Bury me in honor...
G|-------------------------------------------------------------|
D|-------------------------------------------------------------| 
A|-------------2-2-2-2/7--4-4-4/9--2-2-2-2---------------------|
E|-5-5-5-5/12--------------------------------------------------|

CORO
If you love me Won't you let me know? 
G|-------------------------------------------------------|
D|-------------------------------------------------------| 
A|----------4~--2~-4-4-4-4-------------------------------|
E|-4~-5~--8~--2------------------------------------------|

SOLO
G|-----------------------------------------------------------|
D|-----------------------------------------------------------| 
A|-4-4-4-4-4-4-4--2-6-2--------------------------------------|
E|--------------4--------5-5-5-5-2-2-21-1-0------------------|

G|-----------------------------------------------------------|
D|-----------------------------------------------------------| 
A|-4-4-4--2-6-2--4-4-4--2-6-2--------------------------------|
E|------4-------------4--------5-5-5-5-2-2-21-1-0------------|

PRECORO3
I don't want to be a soldier...
G|-------------------------------------------------------------|
D|-------------------------------------------------------------| 
A|-------------2-2-2-2/7--4-4-4/9--2-2-2-2---------------------|
E|-5-5-5-5/12--------------------------------------------------|

CORO
If you love me Won't you let me know?
G|-------------------------------------------------------|
D|-------------------------------------------------------| 
A|----------4~--2~-4-4-4-4-------------------------------|
E|-4~-5~--8~--2------------------------------------------|

Другие подборы этого исполнителя

Расскажи друзьям!




Привет, гитарист!

Пройди супер-курс по гитаре и порази всех своей игрой!

Забрать курс!
ВАМ ПОДАРКИ ОТ ПРОЕКТА
"ГИТАРНАЯ РЕВОЛЮЦИЯ"