Gitaristu.ru
Аккорды Табулатура Начинающим Мастер-класс Софт Видео
Новости Анонсы Гитары Гитаристы Статьи Аватарки Минусовки
Поиск



Популярные подборы




Настройка гитары






Главная > Аккорды > C > Coldplay

Аккорды
Coldplay
-
We never change (аккорды)

Не нашли аккорды к песне? Посмотрите на


Подбор прислал: gitaristu.ru



Date: Sun, 8 Apr 2001 21:30:11 -0400
From: nate f 
Subject: c/coldplay/we_never_change.crd

Song: We Never Change
Artist: Coldplay
Album: Parachutes
Tuning: Drop high e to C# (low to high: EADGBC#)
Notes: I think the tuning's right, I know they use weird tunings a lot.
The rhythm can be a little tricky, listen to the cd if it's giving you
problems.
Contact: Nate (zero606@excite.com)

Verse
Gtr. 1 (acoustic)
C#-0---0-0-0---0-0-0---0-0-0---0-0-
B -0---0-0-0---0-0-0---0-0-0---0-0-
G -2---2-2-2---2-2-2---2-2-2---2-2-
D -4---4-4-4---4-4-4---4-4-4---4-4-
A -4---4-4-4---4-4-4---4-4-4---4-4-
E -2---2-2-2---2-2-2---2-2-0h2-2-2-

Gtr. 1 
C#-0---0-0-0---0-0-0---0-0-0---0-0-
B -0---0-0-0---0-0-0---0-0-0---0-0-
G -1---1-1-1---1-1-1---1-1-1---1-1-
D -2---2-2-2---2-2-2---2-2-2---2-2-
A -2---2-2-2---2-2-2---2-2-2---2-2-
E -0---0-0-0---0-0-0---0-0-0---0-0-

Pre/Post-Chorus
Gtr. 1
C#-0---0-0-0---0-0-0---0-0-0---0-0-0---0-0-
B -0---0-0-0---0-0-0---0-0-0---0-0-0---0-0-
G -7---7-7-2---2-2-2---2-2-2---2-2-2---2-2-
D -9---9-9-4---4-4-4---4-4-4---4-4-4---4-4-
A -9---9-9-4---4-4-4---4-4-4---4-4-4---4-4-
E -7---7-7-2---2-2-0h2-2-2-2---2-2-2---2-2-
Gtr. 1
C#-0---0-0-0---0-0-0---0-0-0---0-0-
B -0---0-0-0---0-0-0---0-0-0---0-0-
G -1---1-1-1---1-1-1---1-1-1---1-1-
D -2---2-2-2---2-2-2---2-2-2---2-2-
A -2---2-2-2---2-2-2---2-2-2---2-2-
E -0---0-0-0---0-0-0---0-0-0---0-0-

Chorus
Gtr. 1
C#-0---0-0-0---0-0-0---0-0-0---0-0-
B -0---0-0-0---0-0-0---0-0-0---0-0-
G -6---6-6-6---6-6-6---6-6-6---6-6-
D -7---7-7-7---7-7-7---7-7-7---7-7-
A -7---7-7-7---7-7-7---7-7-7---7-7-
E -5---5-5-5---5-5-5---5-5-5---5-5-

Gtr. 2
C#----------------
B -------9-9b10r9~
G ----9-----------
D -11-------------
A ----------------
E ----------------

Gtr. 1
C#-0---0-0-0---0-0-0---0-0-0---0-0-
B -0---0-0-0---0-0-0---0-0-0---0-0-
G -1---1-1-1---1-1-1---1-1-1---1-1-
D -2---2-2-2---2-2-2---2-2-2---2-2-
A -2---2-2-2---2-2-2---2-2-2---2-2-
E -0---0-0-0---0-0-0---0-0-0---0-0-

Gtr. 2
C#-----------------15------14-------
B ----------------------------------
G --------------------13------13----
D -----------------------14------14-
A ----------------------------------
E ----------------------------------

Bridge
Gtr. 1
C#-0---0-0-0---0-0-0---0-0-0---0-0-
B -0---0-0-0---0-0-0---0-0-0---0-0-
G -7---7-7-7---7-7-7---7-7-7---7-7-
D -9---9-9-9---9-9-9---9-9-9---9-9-
A -9---9-9-9---9-9-9---9-9-9---9-9-
E -7---7-7-7---7-7-7---7-7-7---7-7-

Gtr. 1
C#-0---0-0-0---0-0-0---0-0-0---0-0-
B -0---0-0-0---0-0-0---0-0-0---0-0-
G -1---1-1-1---1-1-1---1-1-1---1-1-
D -2---2-2-2---2-2-2---2-2-2---2-2-
A -2---2-2-2---2-2-2---2-2-2---2-2-
E -0---0-0-0---0-0-0---0-0-0---0-0-

Ending
Gtr. 1
C#-0---0-x-0---0-x-0---0-x-0---0-x-
B -0---0-x-0---0-x-0---0-x-0---0-x-
G -7---7-x-2---2-x-1---1-x-7---7-x-
D -9---9-x-4---4-x-2---2-x-9---9-x-
A -9---9-x-4---4-x-2---2-x-9---9-x-
E -7---7-x-2---2-x-0---0-x-7---7-x-

Gtr. 1
C#-0---0-x-0---0-x-------x-------x-
B -0---0-x-0---0-x-7---7-x-7---7-x-
G -7---7-x-2---2-x-7---7-x-7---7-x-
D -9---9-x-4---4-x-7---7-x-7---7-x-
A -9---9-x-4---4-x-5---5-x-x---x-x-
E -7---7-x-2---2-x-------x-7---7-x-

Gtr. 1
C#-0---0-x-0---0-x-0---0-x-0---0-x-
B -0---0-x-0---0-x-0---0-x-0---0-x-
G -7---7-x-2---2-x-1---1-x-7---7-x-
D -9---9-x-4---4-x-2---2-x-9---9-x-
A -9---9-x-4---4-x-2---2-x-9---9-x-
E -7---7-x-2---2-x-0---0-x-7---7-x-

Song Structure:
Verse
Pre-Chorus
Chorus
Post-Chorus
Verse
Pre-Chorus
Chorus
Post-Chorus
Bridge
Ending


Другие подборы этого исполнителя

Расскажи друзьям!




Привет, гитарист!

Пройди супер-курс по гитаре и порази всех своей игрой!

Забрать курс!
ВАМ ПОДАРКИ ОТ ПРОЕКТА
"ГИТАРНАЯ РЕВОЛЮЦИЯ"