Gitaristu.ru
Аккорды Табулатура Начинающим Мастер-класс Софт Видео
Новости Анонсы Гитары Гитаристы Статьи Аватарки Минусовки
Поиск



Популярные подборы




Настройка гитары






Главная > Аккорды > C > Coldplay

Аккорды
Coldplay
-
What If bass (табулатура)

Не нашли аккорды к песне? Посмотрите на


Подбор прислал: gitaristu.ru
-------------------------------------------------------------------------------
			     What If - Coldplay
-------------------------------------------------------------------------------

Tabbed By : dvanwyk
e-mail: dustinvanwyk@yahoo.com

 Tuning:Standard
 Verse x2 (Start at 0.52)
G|---------------------|
D|---------------------|
A|9~-12~-14~--7~---5~--|
E|---------------------|

 Pre-Chorus
G|---------------------------------------------------------------------------------------|
D|9~-------------------------------------------------------------------------------------|
A|---7~--9~-5~-----9~-5~-----------------------------------------------------------------|
E|-------------7~--------7~--------------------------------------------------------------|

 Chorus
G|---------------------------------------------------------|
D|---------------7h9p------7h99----------------------------|
A|5-5-55-5-5-------------------7-9-9-99-9-7-7-77-7----7-7--|
E|-----------7-7------77-7-------------------------7h9-9---|

G|---------------------------------------------------------|
D|---------------7h9p------7h99----------------------------|
A|5-5-55-5-5-------------------7-9-9-99-9-7-7-77-7----7-7--|
E|-----------7-7------77-7-------------------------7h9-9---|

G|-------------------------------------------------------------------------------------|
D|---------------7h9p------7h99--------------------------------------------------------|
A|5-5-55-5-5-------------------7-------------------------------------------------------|
E|-----------7-7------77-7-------------------------------------------------------------|

 Verse x2
G|--------------------------------------------------|
D|-----7-7-9-9-9-9-9p77-----------------------------|
A|9-9-9--------------------7-7--7-7-77-7-5-5-55-57--|
E|----------------------7h9-9-----------------------|

 Pre-Chorus
G|------------------------------------------------------------------------|
D|------------------------------------------------------------------------|
A|-----------7-77-7-9-9-12p9-5-5-------7-9-9-12p9-5-5---------------------|
E|7-7-77-7-7---------------------7-7-77---------------7-7-77-7--7-7-77-7--|

 Chorus
G|---------------------------------------------------------|
D|---------------7h9p------7h99----------------------------|
A|5-5-55-5-5-------------------7-9-9-99-9-7-7-77-7----7-7--|
E|-----------7-7------77-7-------------------------7h9-9---|

G|---------------------------------------------------------|
D|---------------7h9p------7h99----------------------------|
A|5-5-55-5-5-------------------7-9-9-99-9-7-7-77-7----7-7--|
E|-----------7-7------77-7-------------------------7h9-9---|

 Interlude
G|-------------------------------------------------------------------------------------|
D|-------------------------------------------------------------------------------------|
A|---------55555555--------------------------------------------------------------------|
E|33333333-----------------------------------------------------------------------------|
 x2
G|--------------------------------------------------------------------------------------|
D|--------------------------------------------------------------------------------------|
A|7-7-7-77-7-7----7-7-------------------------------------------------------------------|
E|-------------7h9-9--------------------------------------------------------------------|


 Chorus
G|---------------------------------------------------------|
D|---------------7h9p------7h99----------------------------|
A|5-5-55-5-5-------------------7-9-9-99-9-7-7-77-7----7-7--|
E|-----------7-7------77-7-------------------------7h9-9---|

G|---------------------------------------------------------|
D|---------------7h9p------7h99----------------------------|
A|5-5-55-5-5-------------------7-9-9-99-9-7-7-77-7----7-7--|
E|-----------7-7------77-7-------------------------7h9-9---|

 Outro x1
G|-------------------------------------|
D|-------------------------------------|
A|---------22224444-55555555-77779999--|
E|33333333-----------------------------|
 x5
G|--------------------------------------------------------------------------------------|
D|--------------------------------------------------------------------------------------|
A|7-7-7-77-7-7----7-7-------------------------------------------------------------------|
E|-------------7h9-9--------------------------------------------------------------------|

 End Off
G|-------------------------------------------------------------------------------|
D|-------------------------------------------------------------------------------|
A|7~-----------------------------------------------------------------------------|
E|-------------------------------------------------------------------------------|

| /  slide up
| \  slide down
| h  hammer-on
| p  pull-off
| ~  vibrato
| +  harmonic
| x  Mute note
===============================================================================

Другие подборы этого исполнителя

Расскажи друзьям!




Привет, гитарист!

Пройди супер-курс по гитаре и порази всех своей игрой!

Забрать курс!
ВАМ ПОДАРКИ ОТ ПРОЕКТА
"ГИТАРНАЯ РЕВОЛЮЦИЯ"