Gitaristu.ru
Аккорды Табулатура Начинающим Мастер-класс Софт Видео
Новости Анонсы Гитары Гитаристы Статьи Аватарки Минусовки
Поиск



Популярные подборы




Настройка гитары






Главная > Аккорды > C > Coldplay

Аккорды
Coldplay
-
Yellow (бас)

Не нашли аккорды к песне? Посмотрите на


Подбор прислал: gitaristu.ru



Date: Thu, 30 Oct 2003 12:47:56 -0800 (PST)
From: joel thurman 
Subject: c/coldplay/yellow.btab


Artist: Coldplay

Album: Parachutes

Song: Yellow

 

Tabbed by Joey (myownvividblood@yahoo.com)

 

Standard E, A, D, G tuning

 

Key

 = Slide down

==========================================================================

 

Main Riff used in Intro, Bridges, amp; Verse (0:11, 0:33-^УLook at the
stars^Е^Ф ,1:50, 2:12-^УI swam across^Е^Ф, 3:13)

 

G||----------------|----------------|----------------|----------------|

D||----------------|----------------|----------------|----------------|

A||-2-2-2-2-2-2-2-2|-2-2-2-2-2-2-2-2|----------------|----------------|

E||----------------|----------------|-2-2-2-2-2-2-2-2|-2-2-2-2-2-2-2-2|

 

G|----------------|----------------|----------------|----------------||

D|----------------|----------------|----------------|----------------||

A|----------------|----------------|-2-2-2-2-2-2-2-2|-2-2-2-2-2-2-2-2||

E|-0-0-0-0-0-0-0-0|-0-0-0-0-0-0-0-0|----------------|----------------||

 

Chorus (1:28, 2:51-^УYour skin^Е^Ф)

 

G|----------------|----------------|----------------|----------------|

D|----------------|----------------|----------------|----------------|

A|-------7-7-7-9-|-6-6-6-4-4-4-4-4|-------7-7-7-9-|-6-6-6-4-4-4-4-4|

E|-0-0-0----------|----------------|-0-0-0----------|----------------|

 

G|----------------|----------------|----------------|----------------|

D|----------------|----------------|----------------|----------------|

A|-------7-7-7-9-|-6-6-6-4-4-4-4-4|----------------|----------------|

E|-0-0-0----------|----------------|-0--------------|----------------|

 

Outro (4:09-^УLook at the stars^Е^Ф)

 

G|----------------|----------------|----------------|----------------|

D|----------------|----------------|-4--------------|----------------|

A|-2--------------|----------------|----------------|----------------|

E|----------------|----------------|----------------|----------------|

 

G|----------------|----------------|----------------|----------------|

D|----------------|----------------|----------------|----------------|

A|----------------|----------------|----------------|----------------|

E|-0--------------|----------------|----------------|----------------|

 

This is all my own work. Any questions/suggestions to
myownvividblood@yahoo.com.

________________________________________________________________________________


Другие подборы этого исполнителя

Расскажи друзьям!




Привет, гитарист!

Пройди супер-курс по гитаре и порази всех своей игрой!

Забрать курс!
ВАМ ПОДАРКИ ОТ ПРОЕКТА
"ГИТАРНАЯ РЕВОЛЮЦИЯ"