Gitaristu.ru
Аккорды Табулатура Начинающим Мастер-класс Софт Видео
Новости Анонсы Гитары Гитаристы Статьи Аватарки Минусовки
Поиск



Популярные подборы




Настройка гитары






Главная > Аккорды > E > Elvis Presley

Аккорды
Elvis Presley
-
Good luck charm (бас)

Не нашли аккорды к песне? Посмотрите на


Подбор прислал: gitaristu.ru



Date: Sat, 2 Nov 2002 11:07:31 +0100 (CET)
From: Jan Bjцrklund 
Subject: p/presley_elvis/good_luck_charm.btab

presley_elvis/good_luck_charm.btab

Basstab by Jan Bjorklund, Finland; 
jani_bjorklund@yahoo.se 
You are welcome to request for basstabs 
Bienvenidos a pedirme transcripciones para el bajo 
Fingering and positions as suggested by TablEdit. 

TablEdited by Jan Bjorklund
Tuning : E A D G 	Time Signature: 4/4

tempo 120 

 Aha ha          |       |  Aha   ha      |       |       Aha      
|--------------------------------|--------------------------------|
|--------------------------------|--------------------------------|
|--------4-------7-------4-------|5-------3-------2-------0-------|
|5-------------------------------|--------------------------------|

 ha      |       |       |    Oh  yeah    |       |       |        
|--------------------------------|--------------------------------|
|------------------------2-------|5-------------------------------|
|--------2-------5---------------|----------------5---------------|
|3-------------------------------|--------7---------------7-------|

 Don't wanna spoil       |        |       |       |       |        
|--------------------------------|--------------------------------|
|--------------------------------|--------2-------5-------2-------|
|--------2-------5-------2-------|3-------------------------------|
|3-------------------------------|--------------------------------|

 |       |       |       |        |       |       |       |        
|--------------------------------|--------------------------------|
|--------------------------------|--------4-------7-------4-------|
|--------2-------5-------2-------|5-------------------------------|
|3-------------------------------|--------------------------------|

 |       |       |       |        |       |       |       |        
|--------------------------------|--------2-----------------------|
|--------------------------------|----------------5-------2-------|
|--------2-------5-------2-------|3-------------------------------|
|3-------------------------------|--------------------------------|

 |       |       |       |        |       |       Come on and      
|--------------------------------|--------------------------------|
|--------4-------7-------4-------|5-------------------------------|
|5-------------------------------|--------------------------------|
|--------------------------------|--------------------------------|

 be my little    |       |        |       |       |       |        
|--------------------------------|--------------------------------|
|--------4-------7-------4-----7-|--------4-------7-------4-------|
|5-------------------------------|5-------------------------------|
|--------------------------------|--------------------------------|

 |       |       |       |        |       |       |       |        
|--------------------------------|--------------------------------|
|5-------------------------------|5-------------------------------|
|----------------5-------7-------|--------7-------5-------7-------|
|--------7-----------------------|--------------------------------|

 |       |       |       |        |       |       |       |        
|--------------------------------|--------------------------------|
|--------4-------7-------4-------|--------4-------7-------4-------|
|5-------------------------------|5-------------------------------|
|--------------------------------|--------------------------------|

 |       |       |       |        |       |       |       |        
|--------------------------------|--------------------------------|
|------------------------4-------|--------4-------7-------4-------|
|--------4-------7---------------|5-------------------------------|
|5-------------------------------|--------------------------------|

 |       |       |       |        |       |       |       |        
|--------------------------------|--------------------------------|
|5-------------------------------|5-------------------------------|
|--------7-------5---------------|--------7-------5-------7-------|
|------------------------7-------|--------------------------------|

 Don't want a silver     |        dollar  |       |       |        
|--------------------------------|--------------------------------|
|5-------------------------------|--------2-------5-------2-------|
|--------7-------5---------------|3-------------------------------|
|------------------------7-------|--------------------------------|

 |       |       |       |        |       |       |       |        
|--------------------------------|--------------------------------|
|--------------------------------|--------4-------7-------4-------|
|--------2-------5-------2-------|5-------------------------------|
|3-------------------------------|--------------------------------|

 |       |       |       |        |       |       |       |        
|--------------------------------|--------------------------------|
|5-------------------------------|----------------2---------------|
|--------7-------5-------5-------|3-------5---------------3-------|
|--------------------------------|--------------------------------|

 |       |       |       |        |       Come on and     |        
|--------------------------------|--------------------------------|
|--------4-------7---------------|5-------------------------------|
|5-----------------------5-------|--------------------------------|
|--------------------------------|--------------------------------|

 Be     my    little     |        good    |loook  | charm |        
|------------------------4-------|--------------------------------|
|--------4-------7---------------|--------4-------7-------4-------|
|5-------------------------------|5-------------------------------|
|--------------------------------|--------------------and so on---|

Transcribe  5.2 transcription http://www.seventhstring.demon.co.uk/
Created with TablEdit http://www.tabledit.com/


Другие подборы этого исполнителя

Расскажи друзьям!




Привет, гитарист!

Пройди супер-курс по гитаре и порази всех своей игрой!

Забрать курс!
ВАМ ПОДАРКИ ОТ ПРОЕКТА
"ГИТАРНАЯ РЕВОЛЮЦИЯ"