Gitaristu.ru
Аккорды Табулатура Начинающим Мастер-класс Софт Видео
Новости Анонсы Гитары Гитаристы Статьи Аватарки Минусовки
Поиск



Популярные подборы




Настройка гитары






Главная > Аккорды > F > Family Cat

Аккорды
Family Cat
-
With a war (табулатура)

Не нашли аккорды к песне? Посмотрите на


Подбор прислал: gitaristu.ru


With a War by The Family Cat


Tabbed by Fisto McNaughty 7/6/05

Work out the rhythm and muting yourselves 


Verse
e|------------------------------------------|
B|------------------------------------------|
G|-------12--------12-----------------------|
D|--9-10-12---9-10-12---7-10-12-10-7-10-12--|
A|--9-10-10---9-10-10---7-10-12-10-7-10-12--|
E|--7-8-------7-8-------5-8--10-8--5-8--10--|

Chorus
e|---------------------------------|
B|------7-------7---5---7---5---7--|
G|--4---7---4---7---5---7---5---7--|
D|--5---7---5---7---5---7---5---7--|
A|--5---5---5---5---3---5---3---5--|
E|--3-------3----------------------|

Solo
e|----------------------------------------------------------------------------------------------------|
B|---------------------------------------------------------------------7-8-10---10-10----10-10-10-10--|
G|------------------4-5-7---5-4-5-4-5-4-5-4--------------------4-5-7----------------------------------|
D|--4-5-7---4-5-7---------------------------7---4-5-7---4-5-7-----------------------------------------|
A|----------------------------------------------------------------------------------------------------|
E|----------------------------------------------------------------------------------------------------|

e|----------------------------------------------------------------------------------------------7-8-10--|
B|--10-8-7-8---10-8-7------------7-8-10-8-7-8-8^-8^-8^-8^---10-8-7---10-8-7------------7-8-10-----------|
G|--------------------7----7---7--------------------------------------------7----7---7------------------|
D|----------------------10----------------------------------------------------10------------------------|
A|------------------------------------------------------------------------------------------------------|
E|------------------------------------------------------------------------------------------------------|

End
e|-----|
B|-----|
G|--4--|
D|--4--|
A|--2--|
E|-----|


Расскажи друзьям!




Привет, гитарист!

Пройди супер-курс по гитаре и порази всех своей игрой!

Забрать курс!
ВАМ ПОДАРКИ ОТ ПРОЕКТА
"ГИТАРНАЯ РЕВОЛЮЦИЯ"