Gitaristu.ru
Главная > Аккорды > G > Gatsbys American Dream

Аккорды
Gatsbys American Dream
-
Margaritas And Cock bass (табулатура)


Подбор прислал: gitaristu.ru
G---------------------------------------------------------------------5~------------|
D-------------------------------------7\--------------------------3-5---------------|
A-------------5---3----353-----------------------------5---3----5--------------12\--|
E--5-5-035--4---3---2~-------2~--1-0--------5-5-035--4---3---2~-----------1-0-------|x2

Rest

G---------|
D---------|
A--5x8----|
E---------|

Chorus
G-------------------------------------------------------------------------------|
D-------------------------------------------------------------------------------|
A--88888--------------88888--------------8888-8------7/8-7-5---0~--7/8-7-55-7---|
E----------8-88-8888----------8-88-8888-----------5~---------8------------------| x2

I'll speak the truth...
G------------------------------------------------------|
D------------------------------------------------------|
A---------------------------/5-5-55/7-55--5555/7-5-3\--|
E--1-1-1-1-1-1111-1-1-1--------------------------------| x2

Chorus
G------------------------------------------------------------------------------------------------|
D------------------------------------------------------------------------------------------------|
A--8-88-8-88-8----------------8-88-8-88-8---------------8-88-88-8-----7/8-7-5---0~--7/8-7-55-7---|
E---------------8-88-8-88-8----------------8-88-8-88-8-------------5~---------8------------------|x2

Breakdownnnn
G--------------------------------------------------------------------------------------------------------|
D--------------------------------------------------------------------------------------------------------|
A--5x8--REST--55\---7--77-/-8-8\5--55------7--77-/-8-8\5--55-----7--77-/-8-8\5--55-----------------------|
E-------------------------------------5-5--------------------5-5---------------------5~-5~-5~-5~--55555--|

Outro
G-------------------------------------------------------------------------------|
D-------------------------------------------------------------------------------|
A--0-0--5-5--8-8--7-7-----000-0-000--0h5-5-5-5p4h5--5h7-8-8-7-/-10-8-7777-8-7\--|
E-------------------------------------------------------------------------------|

G------------------------------------------------------------------------------------------------------|
D------------------------------------------------------------------------------------------------------|
A----------55-5-5-5-5--5h7-8-8-7-/-10-8-7777-8-7\-----------55-5-5-5-5--5h7-8-8-7-/-10-8-7--7~---------|
E--5-5-55------------------------------------------55-5-5-5--------------------------------------5~----|

Другие подборы этого исполнителя

Расскажи друзьям!

Gitaristu.ru 2006-2014
[email protected]
Тексты всех песен принадлежат их правообладателям
Все тексты песен представлены исключительно в образовательных
целях, для обучения игре на гитаре
Все аккорды и тексты песен взяты из открытых источников
Контакты
Гостевая