Gitaristu.ru
Главная > Аккорды > G > Gatsbys American Dream

Аккорды
Gatsbys American Dream
-
My Name Is Ozymandias bass (табулатура)


Подбор прислал: gitaristu.ru
Intro / Verse (Listen to figure out the repeat pattern)
G-----------------------------------------------|------------------------------------------|
D-----------------------------------------------|-------------------7\--7-8-7-8-7----------|
A-----------------------------------------------|--------------5-4-------------------8-----|
E--0-5-5\-----------------5-4-0----0-1-0-1-0-1--|--5-5\------------------------------------|

Chorus
G---------------------------------------------|
D---------------------------------------------|
A--5-555-5-5----------------------------------|
E--------------44-44--0-000-0-0--0-000-0-0----|

G-----------------------------------------------------------------------------------|
D-----------------------------------------------------------------------------------|
A--12-12-12\--11-11-11\--8-8-8\--7-7-7\--5-555-5-5----------------------------------|
E---------------------------------------------------44-44--0-000-0-0--0-000-0-0--1--|

Breakdown
G----------------------------------|
D----------------------------------|
A------------------------6~-7~-----|
E--5~--4~-1~-0~-1~-0~--------------|


Gee-tar Solo(long pause for bass to return...)
G------------|
D--8-7-------|
A------8-7---|
E------------|

G--------------------|
D--------------------|
A--5\----------------|
E--------6\--9\------| x4

(This isn't entirely correct, but it will suffice. The timing might be a bit hard to figure out.)
G-------------------------|
D----7---------------11---|
A--5---5\----7----10------|
E-----------6---9---------| x4

Second Breakdown
G---------------------------------------|
D---------------------------------------|
A-------5-------4-4----------5-8--------|
E--6666--6-5-5-5-5-5----6666------5-5\--| x2

G---------------------------------|
D---------------------------------|
A---------------------------------|
E--6-5\-----6-5\-----6-5-1-0------|

"Bass Solo"
G-----------------------------------2-3-2--------|
D-----7\-----7----7-----5\-------5--------3------|
A--5-------5----4----3---------4-----------------|
E------------------------------------------------| x2

(I know that the bass just slides down from a single note but I'm still not sure which.)
G--------------------------2-3-2------|
D------------------------5-------3----|
A--5\---8\---3\--4\---4---------------|
E-------------------------------------| x2

Outro
G-------------------------------------------|
D-------------------------------------------|
A-------5-------4-4----------5-8------------|
E--6666--6-5-5-5-5-5----6666------5-5\------| x2

G---------------------------------|
D---------------------------------|
A---------------------------------|
E--6-5\-----6-5\-----6-5-1-0~~----|

G----------|
D--2~~-----|
A--1~~-----|
E--0~~-----|

Другие подборы этого исполнителя

Расскажи друзьям!

Gitaristu.ru 2006-2014
[email protected]
Тексты всех песен принадлежат их правообладателям
Все тексты песен представлены исключительно в образовательных
целях, для обучения игре на гитаре
Все аккорды и тексты песен взяты из открытых источников
Контакты
Гостевая