Gitaristu.ru
Главная > Аккорды > G > Gates Of Ishtar

Аккорды
Gates Of Ishtar
-
Wounds (табулатура)


Подбор прислал: gitaristu.ru
Author/Artist: GATES OF ISHTAR
Title: Wounds
Album: AT DUSK AND FOREVER
Transcribed by: Hakuja
URL: http://funeralelegy.net/fw/
Email: [email protected]

Ver. 1.0 (99/12/03)

Explanation of a sign
        h : hammer on             p : pull on
        g : grissando             s : slide
        c,hc,1hc : bend           ^ : tie

Tuning : 1 down (6 : D)


Part A - 4 times Repeat
#||---------------------------------------|--------------------------------------|
#||---------------------------------------|--------------------------------------|
#||o--------------------------------------|-----------------o-/------------------|
#||o--------------------------------------|------------------/-o-----------------|
#||---7--------------------------7--p5----|--------------------------------------|
#||------------0---0----0---0-------------|--------------------------------------|
      1        2        3        4           1        2        3        4


|--------------------------------------|--------------------------------------|
|--------------------------------------|--------------------------------------|
|--------------------------------------|--------------------------------------|
|--------------------------------------|--------------------------------------|
|--3-----------------3-----------------|--5-----------------5--------6--------|
|-----------0---0-------------0---0----|-----------0---0----------------------|
   1        2        3        4        |  1        2        3        4        |
                                       |                                      |
                                       |                                      |
                                       |--------------------------------------|
                                       |--------------------------------------|
                                       |--------------------------------------|
                                       |--------------------------------------|
                                       |--5-----------------5--------2--------|
                                       |-----------0---0----------------------|
                                          1        2        3        4


|--------------------------------------|--------------------------------------|
|--------------------------------------|--------------------------------------|
|--------------------------------------|-----------------o-/------------------|
|--------------------------------------|------------------/-o-----------------|
|--7--------------------------7--p5----|--------------------------------------|
|-----------0---0----0---0-------------|--------------------------------------|
   1        2        3        4           1        2        3        4


|--------------------------------------|---------------------------------------||#
|--------------------------------------|------------__3__----------------------||#
|--------------------------------------|-----------|--|--|--------------------o||#
|--------------------------------------|--5--------4-h5-p4--------------------o||#
|--3-----------------3-----------------|--------------------7--------6---------||#
|-----------0---0-------------0---0----|---------------------------------------||#
   1        2        3        4        |  1        2        3        4         ||
                                       |                                       ||
                                       |                                       ||
                                       |---------------------------------------||#
                                       |---------------------------------------||#
                                       |------------__3__---------------------o||#
                                       |-----------|--|--|--------------------o||#
                                       |--5--------5-h7-p5--3--------2---------||#
                                       |---------------------------------------||#
                                          1        2        3        4  (End of Part A)




Part A' A

Другие подборы этого исполнителя

Расскажи друзьям!

Gitaristu.ru 2006-2014
[email protected]
Тексты всех песен принадлежат их правообладателям
Все тексты песен представлены исключительно в образовательных
целях, для обучения игре на гитаре
Все аккорды и тексты песен взяты из открытых источников
Контакты
Гостевая