Gitaristu.ru
Аккорды Табулатура Начинающим Мастер-класс Софт Видео
Новости Анонсы Гитары Гитаристы Статьи Аватарки Минусовки
Поиск



Популярные подборы




Настройка гитары






Главная > Аккорды > M > Metallica

Аккорды
Metallica
-
Harvester of Sorrow (1)

Не нашли аккорды к песне? Посмотрите на


Подбор прислал: gitaristu.ru
Riff 1
e-----------------------------------------------------------
B-----------------------------------------------------------
G-----------4--3--------------------------------------------
D--5--4-----4--3-----5--4-----------------------------------
A--5--4-----2--1-----5--4-----------------------------------
E--3--2--0--------0--3--2--0--------------------------------
                                    *repeat then palm mute later
e-----------------------------------------------------------
B-----------------------------------------------------------
G----------------0------------------------------------------
D-----3--2----------3--2-------3--0---------0-----0---------
A--2-----------2------------2-------------0-----------------
E0-----------0------------0--------------3-------1----------

Riff1 again
                    / = slide
e-----------------------------------------------------------
B-----------------------------------------------------------
G---------------------------4/-3----------------------------
D--2--2-2--2--2-2--5/-4-----4/-3-----5/-4-------------------
A--2--2-2--2--2-2--5/-4-----2/-1-----5/-4-------------------
E--0--0-0--0--0-0--3/-2--0--------0--3/-2-------------------

e-----------------------------------------------------------
B-----------------------------------------------------------
G---------------------------4/-3----------------------------
D--3--3-3--3--3-3--5/-4-----4/-3-----5/-4-------------------
A--3--3-3--3--3-3--5/-4-----2/-1-----5/-4-------------------
E--1--1-1--1--1-1--3--2--0--------0--3/-2-------------------

Riff 1 again

e-----------------------------------------------------------
B-----------------------------------------------------------
G-----------------------------------------------------------
D-----------------------------------------------------------
A-----------------------------------------------------------
E--2--2-2/--5----2--2-2/--5----5/--0----2--2-2/--6----6/--0-

e-----------------------------------------------------------------
B-----------------------------------------------------------------
G------------------------------3-----------------------7----------
D--2-2--4/-5--2--2--2--2-2--4--3--2--2--2------2-2--4--7--5--5--5-
A--2-2--4/-5--2--2--2--2-2--4--1--2--2--2-[x3]-2-2--4--5--5--5--5-
E--0-0--2/-3--0--0--0--0-0--2-----0--0--0------0-0--2-----3--3--3-
                      ^------------------^

                                                *this part is verse
e-----------------------------------------------------------------
B-----------------------------------------------------------------
G-------------------------------------------7---------------------
D--2-2--4/-5--2--2--2---------------2-2--4--7--5--5--5------------
A--2-2--4/-5--2--2--2---[repeat]----2-2--4--5--5--5--5------------
E--0-0--2/-3--0--0--0---------------0-0--2-----3--3--3------------
        ^-------- sometimes I just bend this chord to get the same effect
                  as the slide

Другие подборы этого исполнителя

Расскажи друзьям!




Привет, гитарист!

Пройди супер-курс по гитаре и порази всех своей игрой!

Забрать курс!
ВАМ ПОДАРКИ ОТ ПРОЕКТА
"ГИТАРНАЯ РЕВОЛЮЦИЯ"