Gitaristu.ru
Аккорды Табулатура Начинающим Мастер-класс Софт Видео
Новости Анонсы Гитары Гитаристы Статьи Аватарки Минусовки
Поиск



Популярные подборы




Настройка гитары






Главная > Аккорды > M > Разное - Телевидение

Аккорды
Разное - Телевидение
-
Airwolf theme (бас)

Не нашли аккорды к песне? Посмотрите на


Подбор прислал: gitaristu.ru


Airwolf Theme
Tabbed by: ‘Metal up ur Ass’
Tuning: Standard

G]-----------5-4-----5-4----------------------
D]-------5-7-----5-7-----5-7-5---------------- X 2
A]---5-7-----------------------7-5------------
E]-5-------------------------------8-7--------

G]-------------8-7------8-7-------------------
D]--------8-10-----8-10-----8-10-8------------
A]---8-10--------------------------10-8-------
E]-8------------------------------------11-10-

G]-------------8-7------8-7------8-7---12-----
D]--------8-10-----8-10-----8-10-----8--------
A]---8-10-------------------------------------
E]-8------------------------------------------

G]-----------5-4-----5-4----------------------
D]-------5-7-----5-7-----5-7-5---------------- X 2
A]---5-7-----------------------7-5------------
E]-5-------------------------------8-7--------

G]-------------8-7------8-7------8-7---12-----
D]--------8-10-----8-10-----8-10-----8--------
A]---8-10-------------------------------------
E]-8------------------------------------------


G]-------------------55-55-44-9-12-14-14-14-14
D]-------------55-55--------------------------
A]-------55-55--------------------------------
E]-55-55--------------------------------------


I’ve had a lot of fun playing this one at live gigs, try funking it or
adding heavy distortion, I prefer to play this fast and heavy with a
trippy wha wha section.
Have fun and enjoy.


Другие подборы этого исполнителя

Расскажи друзьям!




Привет, гитарист!

Пройди супер-курс по гитаре и порази всех своей игрой!

Забрать курс!
ВАМ ПОДАРКИ ОТ ПРОЕКТА
"ГИТАРНАЯ РЕВОЛЮЦИЯ"