Gitaristu.ru
Аккорды Табулатура Начинающим Мастер-класс Софт Видео
Новости Анонсы Гитары Гитаристы Статьи Аватарки Минусовки
Поиск



Популярные подборы




Настройка гитары






Главная > Аккорды > M > Разное - Телевидение

Аккорды
Разное - Телевидение
-
Angel (табулатура)

Не нашли аккорды к песне? Посмотрите на


Подбор прислал: gitaristu.ru



Date: Tue, 15 May 2001 09:42:07 -0400
From: Charles Dumais 
Subject: m/misc_television/angel.tab

Hey all angel fans I received a lot of e-mails telling me i did a
good job on my first attempt to tab angel's theme.I also received
not so good ones.So, i decided to retab the hole thing in standard
tuning and slightly differently.NEWSFLASH           The first tab,
is tuned in EB.Anyway here it is.Oh ,I'm 100% sure and confident about
this tab.

                          Angels tv theme
                     tabed by charles dumais(me )
                      composer:darling violetta
                   (so i've been told trew emails)
Legend:

  /= a slide(in this tab you use your fingers to slide from one note         
      to another)
  ~= vibrato( i can't explain this one)Every note is basicly vibrated
  b= bend up or down


*Tuned in standard notation

             * watch for the stretch
E|------------------------------------------|
B|------------------------------------------|
G|-----------7-5-4~~------------------------|
D|------5-7---------7-5---------------------|
A|--5/7---------------------9-7~--9--10~----|
E|--------------------------------------8~--|

E|------------------------------------------|
B|-----------------------7-8-~--------------|
G|------------7-5-4~~------------5-~~-------|
D|-------5-7--------------------------------|
A|--5/7-------------------------------------|
E|------------------------------------------|

E|--------------------------------------------|
B|--------------------------------------------|
G|--------------------------------------------|
D|--------------------------------------------|
A|------------------------------------5-3-2---|
E|--0-2-0-2-0-2/3~~~~---0-2-0-2-0-2/3---------|

    *YOU WILL NEED TO HEAR THE SONG
       FOR THIS PART CAUSE IT GETS
       LITTLE TRICKY                                 *little bend
E|-------------------------------------------------------------|
B|----------------------------------------7-8------12B(13)~~~~~|
G|--/5-4-2~-7-5-4~---------------7-5-4~-------5~~--------------|
D|---------------7-5-4~--2~--4---------------------------------|
A|-------------------------------------------------------------|
E|-------------------------------------------------------------|

The only thing I recommend is to play it with the theme fresh in you're mind 
cause at the end it slows down and picks up speed at
different times.On accoustic guitars or electric ones,no difference.
Don't forget to send me an email at Charlz_dumais@hotmail.com
The new episodes rock I recommend visiting their web site too.Very cool I 
also tabed buffy's theme too don't forget to check that one
out.

Charles
proudly canadian and insane megadeth fan
--------------------------------------------------------------------
This all my own work All original and it has not been taken
from a tab book.
--------------------------------------------------------------------


Другие подборы этого исполнителя

Расскажи друзьям!




Привет, гитарист!

Пройди супер-курс по гитаре и порази всех своей игрой!

Забрать курс!
ВАМ ПОДАРКИ ОТ ПРОЕКТА
"ГИТАРНАЯ РЕВОЛЮЦИЯ"