Gitaristu.ru
Аккорды Табулатура Начинающим Мастер-класс Софт Видео
Новости Анонсы Гитары Гитаристы Статьи Аватарки Минусовки
Поиск



Популярные подборы




Настройка гитары






Главная > Аккорды > M > My Chemical Romance

Аккорды
My Chemical Romance
-
Dead solo-unknown (табулатура)

Не нашли аккорды к песне? Посмотрите на


Подбор прислал: gitaristu.ru




e[------------------------------------------------------------------]
B[------------------------------------------------------------------]
G[--------------------------------------------------14--14~---------]
D[-------------9--10--12---12b14--r12-10~----12--12---------------9-]
A[--10~-----10------------------------------------------------------]
E[------------------------------------------------------------------]

   Gtr 1.                   Gtr 2                 Gtr 1 amp; 2
[---------------------|-------------------|-------------------------]
[---------------------|-------------------|-------------------------]
[---------------------|-------------------|-------------------------]
[h10p9p7h9p7/5h7p5----|7p5---5------------|-14-11-------------------]
[-----------------h7p5|----7---7-5-7-5----|-------13-10-------------]
[---------------------|----------------7-5|-------------12-10-9-~---]

[-------------------------------------------------7--3----------7--3----10--]
[-3--3----3-3----3-3----3-3-----------------0h4h5---------0h4h5-------------]
[-0--5b7--0-5b7--0-5b7--0-5b7-r5p3-5-4~---3-------------3-------------------]
[---------------------------------------------------------------------------]
[---------------------------------------------------------------------------]
[---------------------------------------------------------------------------]

[-17p15----19p15----17p15----19p15----17p15----19p15----17p15----19p15---]
[-------15-------15-------15-------15-------15-------15-------15-------15]
[------------------------------------------------------------------------]
[------------------------------------------------------------------------]
[------------------------------------------------------------------------]
[------------------------------------------------------------------------]

[-20p15----19p15----17p15----19p15----17b19r17-15-15----15----15----15---]
[-------15-------15-------15-------15-x-----------18b20-18b20-18b20-18b20]
[-------------------------------------x-----------------------------------]
[-------------------------------------x-----------------------------------]
[-------------------------------------------------------------------------]
[-------------------------------------------------------------------------]



Legend:
h = hammer-on
p = pull-off
b = bend
r = release bend
x = dead note
/ = slide up
 = slide down
~ = vibrato (usually optional)



Другие подборы этого исполнителя

Расскажи друзьям!




Привет, гитарист!

Пройди супер-курс по гитаре и порази всех своей игрой!

Забрать курс!
ВАМ ПОДАРКИ ОТ ПРОЕКТА
"ГИТАРНАЯ РЕВОЛЮЦИЯ"