Gitaristu.ru
Аккорды Табулатура Начинающим Мастер-класс Софт Видео
Новости Анонсы Гитары Гитаристы Статьи Аватарки Минусовки
Поиск



Популярные подборы




Настройка гитары






Главная > Аккорды > M > My Chemical Romance

Аккорды
My Chemical Romance
-
Drowning lessons (табулатура)

Не нашли аккорды к песне? Посмотрите на


Подбор прислал: gitaristu.ru


I saw that fretplay didnt have another song from My Chemical Romance so i
dedcided to work it out for thtem so there you go 

Verse
                      x3
e|-----------------------|------------------------------------------------------|
B|-10-10-9--5--5--5--5---|--7--7--7---------------------------------------------|
G|-x--x--x--x--x--x--x---|--x--x--x--(drum fill)--------------------------------|
D|-7--7--6--2--2--2--2---|--4--4--4---------------------------------------------|
A|-----------------------|------------------------------------------------------|
E|-----------------------|------------------------------------------------------|

                      x2
e|-----------------------|------------------------------------------------------|
B|-10-10-9--5--5--5--5---|--9--9--7--7-9-7--------------------------------------|
G|-x--x--x--x--x--x--x---|--x--x--x--x-x-x--------------------------------------|
D|-7--7--6--2--2--2--2---|--6--6--4--4-6-4--------------------------------------|
A|-----------------------|------------------------------------------------------|
E|-----------------------|------------------------------------------------------|

Repeat everything above in total, THREE times. I'll post the alternate version
using A string octaves if anyone cares that is. This way sounds more accurate
anyway.

Interluedey bit
 x2
e|--------------------------------------------------------------------|
B|--------------------------------------------------------------------|
G|---777-7--7-7-7-999-9--9-9-9-666-6--6-6-6--4-4--4-4--3-3--3-3-------|
D|---777-7--7-7-7-999-9--9-9-9-666-6--6-6-6--4-4--4-4--3-3--3-3-------|
A|---555-5--5-5-5-777-7--7-7-7-444-4--4-4-4--2-2--2-2--1-1--1-1-------|
E|--------------------------------------------------------------------|

Second Verse
                      x3
e|-----------------------|------------------------------------------------------|
B|-10-10-9--5--5--5--5---|--7--7--7---------------------------------------------|
G|-x--x--x--x--x--x--x---|--x--x--x--(drum fill)--------------------------------|
D|-7--7--6--2--2--2--2---|--4--4--4---------------------------------------------|
A|-----------------------|------------------------------------------------------|
E|-----------------------|------------------------------------------------------|

                      x2
e|-----------------------|------------------------------------------------------|
B|-10-10-9--5--5--5--5---|--9--9--7--7-9-7--------------------------------------|
G|-x--x--x--x--x--x--x---|--x--x--x--x-x-x--------------------------------------|
D|-7--7--6--2--2--2--2---|--6--6--4--4-6-4--------------------------------------|
A|-----------------------|------------------------------------------------------|
E|-----------------------|------------------------------------------------------|

Repeat everything above in total, TWO times.

Rest to come. Dalton B.


Другие подборы этого исполнителя

Расскажи друзьям!




Привет, гитарист!

Пройди супер-курс по гитаре и порази всех своей игрой!

Забрать курс!
ВАМ ПОДАРКИ ОТ ПРОЕКТА
"ГИТАРНАЯ РЕВОЛЮЦИЯ"