Gitaristu.ru
Аккорды Табулатура Начинающим Мастер-класс Софт Видео
Новости Анонсы Гитары Гитаристы Статьи Аватарки Минусовки
Поиск



Популярные подборы




Настройка гитары






Главная > Аккорды > N > Nirvana

Аккорды
Nirvana
-
About a girl (аккорды)

Не нашли аккорды к песне? Посмотрите на


Подбор прислал: gitaristu.ru




About A Girl - Nirvana
Taken from the album Bleach
Tabbed by Tim Millard (millartj@wilkes1.wilkes.edu)
Standard tuning (EADGBE)

when I've seen this song played live, Kurt doesn't use those chords.  Also, 
the existing tab left out some parts of the song, especially the 
solo.  This will hopefully remedy that.

And, of course, listen to CD for timings and shit, repeat everything as 
needed, yadda yadda yadda...

Intro / Verse:

For this part, you REALLY should listen to the CD for the timings, because 
they're random at times...

    E     G
E -0--|--3-
B -0--|--0-
G -X--|--0-
D -2--|--0-
A -2--|--X-
E -0--|--3-

Chorus:

E --------------------------------------------------------
B --------------------------------------------------------
G -6-6-6-------------------------6-6-6--------------------
D -6-6-6--6-6-6--4-4-x-4--4-4-4--6-6-6--6-6-6--4-4-x-4--4-
A -4-4-4--6-6-6--4-4-x-4--4-4-4--4-4-4--6-6-6--4-4-x-4--4-
E --------4-4-4--2-2-x-2--2-2-2---------4-4-4--2-2-x-2--2-

E ------------------------------
B ------------------------------
G ------9-9-9-9---------5-5-5-5-
D -2-2--9-9-9-9--7-7-7--5-5-5-5-
A -2-2--7-7-7-7--7-7-7--3-3-3-3-
E -0-0-----------5-5-5----------
                         * For the final chorus, play the C
                           muted about 10 times or so

Solo:

E ------------------------------
B ---------------9-9-9-12-12-12-
G ---------------9-9-9-12-12-12-
D -------5-7-7-7-9-9-9-12-12-12-
A ---5-7------------------------
E -0----------------------------


Другие подборы этого исполнителя

Расскажи друзьям!




Привет, гитарист!

Пройди супер-курс по гитаре и порази всех своей игрой!

Забрать курс!
ВАМ ПОДАРКИ ОТ ПРОЕКТА
"ГИТАРНАЯ РЕВОЛЮЦИЯ"