Gitaristu.ru
Аккорды Табулатура Начинающим Мастер-класс Софт Видео
Новости Анонсы Гитары Гитаристы Статьи Аватарки Минусовки
Поиск



Популярные подборы




Настройка гитары






Главная > Аккорды > N > Nirvana

Аккорды
Nirvana
-
Come as you are1 (табулатура)

Не нашли аккорды к песне? Посмотрите на


Подбор прислал: gitaristu.ru


Tabbed By: Dustin “Stormin’ Mormon” Lind

This is a really easy song to play and there’s not much for a solo.  Use wah and distortion on the solo, and just distortion on the chorus.    There aren’t too many tabs that are better than this for this song, but if you feel like posting a “better” one go for it. Look for a band named TRICK FUNNEL in a couple of years 

Here’s The Bass Intro:
G|------------------------------------
D|------------------------------------
A|----------0---0-----------2-------2-
E|--0-0-1-2---2---2-2-1-1-0----0-0----

PRECORUS:
Em D Em         Em D Em           
Em D Em         Em D Em

CHORUS:
Am  C         Am C        Am C       Am C

SOLO:

e|------------------------------------------------
B|-----------------------------------------9------
G|------9---11--------9---11--------9—--11---11---
D|--11----------11--------------11----------------
A|------------------------------------------------
E|------------------------------------------------

e|-----------
B|-----------
G|-----9-----
D|--------11-
A|-----------
E|-----------

Play that 4 times and you’ve got yourself a song.

“Whenever I try to plan something, it never seems to work out.  So why plan It only leads to disappointment.”- Eddie Van Halen


Другие подборы этого исполнителя

Расскажи друзьям!




Привет, гитарист!

Пройди супер-курс по гитаре и порази всех своей игрой!

Забрать курс!
ВАМ ПОДАРКИ ОТ ПРОЕКТА
"ГИТАРНАЯ РЕВОЛЮЦИЯ"