Gitaristu.ru
Аккорды Табулатура Начинающим Мастер-класс Софт Видео Форум Блог
Новости Анонсы Гитары Гитаристы Статьи Аватарки Минусовки
Поиск





Популярные подборы




Настройка гитары






Главная > Аккорды > N > Nirvana

Аккорды
Nirvana
-
Marigold acoustic (табулатура)



Подбор прислал: gitaristu.ru



From: Saml 
Subject: n/nirvana/marigold_acoustic.tab
Date: Tue, 25 Dec 2001 03:42:51 +0100

Marigold Acoustic Version by Nirvana

Tab by Oliver Saml


Playing the song:
-----------------
8x Verse (2x as intro)
Chorus
6x Verse
Chorus
4x Verse
Chorus
Endchord


Verse:
------
E|----------------------------------------------------|
B|--5--5--5-------------------------------------------|
G|--4--4--4----6--6--6--6----4--4--4----5--5--5--5----|
D|--2--2--2----6--6--6--6----4--4--4----5--5--5--5----|
A|-------------4--4--4--4----2--2--2----3--3--3--3----|
E|----------------------------------------------------|


Chorus:
-------
E|----------------------------------------------------|
B|----------------------------------------------------|
G|----------------------------------------------------|
D|--5--5--5--5--5--5--5--5----7--7--7--7--7--7--7--7--|
A|--5--5--5--5--5--5--5--5----7--7--7--7--7--7--7--7--|
E|--3--3--3--3--3--3--3--3----5--5--5--5--5--5--5--5--|


E|----------------------------------------------------|
B|----------------------------------------------------|
G|----------------------------------------------------|
D|--2--2--2--2--2--2--2--2----6--6--6--6--6--6--6--6--|
A|--2--2--2--2--2--2--2--2----6--6--6--6--6--6--6--6--|
E|--0--0--0--0--0--0--0--0----4--4--4--4--4--4--4--4--|


E|----------------------------------------------------|
B|----------------------------------------------------|
G|----------------------------------------------------|
D|--5--5--5--5--5--5--5--5--5--5--5--5--5--5--5--5----|
A|--5--5--5--5--5--5--5--5--5--5--5--5--5--5--5--5----|
E|--3--3--3--3--3--3--3--3--3--3--3--3--3--3--3--3----|


Kurt ends the song with this endchord:
--------------------------------------
E|-------|
B|--5----|
G|--4----|
D|--2----|
A|-------|
E|-------|



Comments Mail me: saml@chello.at


Расскажи друзьям!




Войдите, используя Ваш аккаунт:



Забыли пароль?
Зарегистрироваться

Привет, гитарист!

Пройди супер-курс по гитаре и порази всех своей игрой!

Забрать курс!
ВАМ ПОДАРКИ ОТ ПРОЕКТА
"ГИТАРНАЯ РЕВОЛЮЦИЯ"