Gitaristu.ru
Аккорды Табулатура Начинающим Мастер-класс Софт Видео Форум Блог
Новости Анонсы Гитары Гитаристы Статьи Аватарки Минусовки
Поиск





Популярные подборы




Настройка гитары






Главная > Аккорды > N > Nirvana

Аккорды
Nirvana
-
Milk it (аккорды)



Подбор прислал: gitaristu.ru



Date: Sun, 27 Apr 2003 21:42:28 +0100
From: Amanda OATES 
Subject: n/nirvana/milk_it.crd

From Nirvana's album in utero
By kurt Cobain
Milk It
Tab by Sam Oates this is all my own work
 
i'd like to thank the other guy who tabbed this song although it was
wrong it was as he said a good starting point here's a more or less 100%
version. Standard tuning
 
intro 1= and verse  the first part of the intro is just using a couple of
notes to come up with a dreary line for the bass. These are just a couple
of notes but he improvised, use them in any order.
muted..................
|----------------------------|
|--------------------------9-|may up the rest
|-----------------------5----|but the last 2 notes are plyed
|------2-----6-7-8-9-10------|louder than the others
|-8-7------------------------|every now and again
|-6------4-3-----------------|
 
after the bass line repeats he pauses then continues
intro 2
 w distortion......................
|----------------------------------|
|----------------------------------|
|--------9-9-----------------------|
|-8-8-8--9-9--5-0-5-5-5-5-5--0-0-0-|
|-8-8-8--7-7--5-0-5-5-5-5-5--0-0-0-|
|-6-6-6--0-0--3-0-3-3-3-3-3--0-0-0-|
 
|------------------|
|------------------|
|--------9-9-------|
|-8-8-8--9-9--5-0-5|
|-8-8-8--7-7--5-0-5| pause
|-6-6-6--0-0--3-0-3|
repeat this however many times according to cd and on the last time
instead of pausing you finish it off without distortion
then go into verse 1 which is basically intro 1 and some more improv
notes
 
Chorus
 
|----------------------------------|
|----------------------------------|
|--------9-9-----------------------|
|-8-8-8--9-9--5-0-5-5-5-5-5--0-0-0-|
|-8-8-8--7-7--5-0-5-5-5-5-5--0-0-0-|
|-6-6-6--0-0--3-0-3-3-3-3-3--0-0-0-|
 
|-------------------|
|-------------------|
|--------9-9--------|
|-8-8-8--9-9--5-0-5-|
|-8-8-8--7-7--5-0-5-|
|-6-6-6--0-0--3-0-3-|
                     Doll
|----------------------------------|
|----------------------------------|
|--------9-9-----------------------|
|-8-8-8--9-9--5-0-5-5-5-5-5--0-0-0-|
|-8-8-8--7-7--5-0-5-5-5-5-5--0-0-0-|
|-6-6-6--0-0--3-0-3-3-3-3-3--0-0-0-|
 steakkkkkkkkkkk
                         
|-------------------|
|-------------------|
|--------9-9--------|
|-8-8-8--9-9--5-0-5-|
|-8-8-8--7-7--5-0-5-|
|-6-6-6--0-0--3-0-3-|
                     Test
|----------------------------------|
|----------------------------------|
|--------9-9-----------------------|
|-8-8-8--9-9--5-0-5-5-5-5-5--0-0-0-|
|-8-8-8--7-7--5-0-5-5-5-5-5--0-0-0-|
|-6-6-6--0-0--3-0-3-3-3-3-3--0-0-0-|
 meatttttttttttt                 
                                                                            
without dist....
|----------------------------------|
|----------------------------------|
|--------9-9-----------------------|
|-8-8-8--9-9--5-0-5-5-5-5-5--0-0-0-|
|-8-8-8--7-7--5-0-5-5-5-5-5--0-0-0-|
|-6-6-6--0-0--3-0-3-3-3-3-3--0-0-0-|
 
Then comes the second chorus which is the same but with no pauses and
again heavy distortion
 
 
this final verse contains more notes along with the ones i mentioned
before.these are some of them.
mute..........................................................
|---------------------------------------------------|then rep-
|---------------------------------------------------|eat that
|-9-10-11-12-13-14-15-16-17-then-a-slow-slide-up-/7-|on the
|---------------------------------------------------|next str-
|---------------------------------------------------|ing
|---------------------------------------------------|
 
remember its improvising
 
 
any comments corrections requests would be welcome email me.


Расскажи друзьям!




Войдите, используя Ваш аккаунт:



Забыли пароль?
Зарегистрироваться

Привет, гитарист!

Пройди супер-курс по гитаре и порази всех своей игрой!

Забрать курс!
ВАМ ПОДАРКИ ОТ ПРОЕКТА
"ГИТАРНАЯ РЕВОЛЮЦИЯ"