Gitaristu.ru
Аккорды Табулатура Начинающим Мастер-класс Софт Видео
Новости Анонсы Гитары Гитаристы Статьи Аватарки Минусовки
Поиск



Популярные подборы




Настройка гитары






Главная > Аккорды > N > Nirvana

Аккорды
Nirvana
-
Milk it (бас)

Не нашли аккорды к песне? Посмотрите на


Подбор прислал: gitaristu.ru


Tuning: 1/2 step down
 

Intro x2
 
Gb-----------------------------------------------------------
Db-----------------------------------------------------------
Ab---------------8-------------------------------------------
Eb---0-77-0-7-0---------0-44-0-4-0---5----0-0-0-0-4-0-0-0-
 
Chrous
Gb---------------------------------------------------------
Db---------------------------------------------------------
Ab-------8-8--------------------------------8-8------------
Eb---7-7-----4-4-0--0-4-4-55-0-0-0-----7-7-----4-4-0--5--
 
Verse
Gb--------------------------------------------------------
Db--------------------------------------------------------
Ab--------------------------------------------------------
Eb----7b-7-7-7-7-7-7---0--0-0-0-0-0-0-------------------
 

 


Другие подборы этого исполнителя

Расскажи друзьям!




Привет, гитарист!

Пройди супер-курс по гитаре и порази всех своей игрой!

Забрать курс!
ВАМ ПОДАРКИ ОТ ПРОЕКТА
"ГИТАРНАЯ РЕВОЛЮЦИЯ"