Gitaristu.ru
Аккорды Табулатура Начинающим Мастер-класс Софт Видео
Новости Анонсы Гитары Гитаристы Статьи Аватарки Минусовки
Поиск



Популярные подборы




Настройка гитары






Главная > Аккорды > N > Nirvana

Аккорды
Nirvana
-
Mr moustache (бас)

Не нашли аккорды к песне? Посмотрите на


Подбор прислал: gitaristu.ru


mr.moustache by nirvana


this is my interpritaion of the fabulous song mr.moustache


g----------------------------------

d-----------------------------------

a----2---------------1------------

e--3---3-2-1-0-1-2-3---3-2-1-0-1-2-

thats the whole verse thing

chorus
g--------------------------------------------------

d-------------------------------------------

a--2--2--3--3-3---------------2--2--3--3-3-----------

e----------------3-3-3-3-3--3--------------3-3-3-3-3
do this twice then play

g--------------------------------------------------------------

d----------------------------------------------------------

a----------------------------------------------6-6-6-6-6-6-6-6-

e---5--5--5-5-5-5--5--5-5-5-5-5--8-8-8-8-8-8-8-------------------

i hope you understand this cause i sure as fuck can't 

tootles


Другие подборы этого исполнителя

Расскажи друзьям!




Привет, гитарист!

Пройди супер-курс по гитаре и порази всех своей игрой!

Забрать курс!
ВАМ ПОДАРКИ ОТ ПРОЕКТА
"ГИТАРНАЯ РЕВОЛЮЦИЯ"