Gitaristu.ru
Аккорды Табулатура Начинающим Мастер-класс Софт Видео
Новости Анонсы Гитары Гитаристы Статьи Аватарки Минусовки
Поиск



Популярные подборы




Настройка гитары






Главная > Аккорды > N > Nirvana

Аккорды
Nirvana
-
Mr moustache (табулатура)

Не нашли аккорды к песне? Посмотрите на


Подбор прислал: gitaristu.ru



Date: Wed, 13 Nov 2002 20:10:02 +0000
From: james wheatley 
Subject: n/nirvana/mr_moustache.tab 

file name: n/nirvana/mr._moustache.tab
artist: nirvana
song: mr. moustache
songwriter: kurt cobain
tabbed by: james wheatley (all my own work)


intro:

e|----------------------------------------------------------------------
b|----------------------------------------------------------------------
g|----------------------------------------------------------------------
d|----------------------------------------------------------------------
a|-----2---------------1------------------------------------------------
E|---3---3-2-1-0-1-2-3---3-2-1-0-1-2------------------------------------

play that 4 times, then the verse:

e|----------------------------------
b|----------------------------------
g|----------------------------------
d|---5--5------3--3--3--------------
a|---5--5------3--3--3--------------
E|---3--3------1--1--1--------------
            PM -------

play that 12 times, then:

e|----------------------------------------------------------------------
b|----------------------------------------------------------------------
g|----------------------------------------------------------------------
d|----------------------------------------------------------------------
a|-----2---------------1------------------------------------------------
E|---3---3-2-1-0-1-2-3---3-2-1-0-1-2------------------------------------

e|----------------------------------------------------------------------
b|----------------------------------------------------------------------
g|----------------------------------------------------------------------
d|----------------------------------------------------------------------
a|-----2---------------1------------------------------------------------
E|---3---3-2-1-0-1-2-3---3-2-1-0-1-2------------------------------------

then,

e|----------------------------------
b|----------------------------------
g|----------------------------------
d|---5--5------3--3--3--------------
a|---5--5------3--3--3--------------
E|---3--3------1--1--1--------------
            PM -------

play that 8 times,then:

e|----------------------------------------------------------------------
b|----------------------------------------------------------------------
g|----------------------------------------------------------------------
d|----------------------------------------------------------------------
a|-----2---------------1------------------------------------------------
E|---3---3-2-1-0-1-2-3---3-2-1-0-1-2------------------------------------

play this 4 times,

chorus

e|---------------------------------------------------------------------
b|---------------------------------------------------------------------
g|---4-x--5-5-5---4-x--5-5-5---4-x--5-5-5---4-x--5-5-5-----------------
d|---4-x--5-5-5---4-x--5-5-5---4-x--5-5-5---4-x--5-5-5-----------------
a|---2-x--3-3-3---2-x--3-3-3---2-x--3-3-3---2-x--3-3-3-----------------
E|---------------------------------------------------------------------

e|---------------------------------------------------------------------
b|---------------------------------------------------------------------
g|---2-2-x-2--2-2-x---2-2-x-2--2-2-x---5-5-5-5/8-8-8-8-----------------
d|---2-2-x-2--2-2-x---2-2-x-2--2-2-x---5-5-5-5/8-8-8-8-----------------
a|---0-0-x-0--0-0-x---0-0-x-0--0-0-x---3-3-3-3/6-6-6-6-----------------
E|---------------------------------------------------------------------

e|---------------------------------------------------------------------
b|---------------------------------------------------------------------
g|---2-2-x-2--2-2-x---2-2-x-2--2-2-x---5-5-5-5-5/8-8-8-8-8-------------
d|---2-2-x-2--2-2-x---2-2-x-2--2-2-x---5-5-5-5-5/8-8-8-8-8-------------
a|---0-0-x-0--0-0-x---0-0-x-0--0-0-x---3-3-3-3-3/6-6-6-6-6-------------
E|---------------------------------------------------------------------



e|----------------------------------------------------------------------
b|----------------------------------------------------------------------
g|----------------------------------------------------------------------
d|----------------------------------------------------------------------
a|-----2---------------1------------------------------------------------
E|---3---3-2-1-0-1-2-3---3-2-1-0-1-2------------------------------------

do that 3 times, then:
e|----------------------------------
b|----------------------------------
g|----------------------------------
d|---5--5------3--3--3--------------
a|---5--5------3--3--3--------------
E|---3--3------1--1--1--------------
            PM -------

do that 12 times then :


e|----------------------------------------------------------------------
b|----------------------------------------------------------------------
g|----------------------------------------------------------------------
d|----------------------------------------------------------------------
a|-----2---------------1------------------------------------------------
E|---3---3-2-1-0-1-2-3---3-2-1-0-1-2------------------------------------

do that 2 times:

e|----------------------------------
b|----------------------------------
g|----------------------------------
d|---5--5------3--3--3--------------
a|---5--5------3--3--3--------------
E|---3--3------1--1--1--------------
            PM -------
do that 8 times, then:

e|----------------------------------------------------------------------
b|----------------------------------------------------------------------
g|----------------------------------------------------------------------
d|----------------------------------------------------------------------
a|-----2---------------1------------------------------------------------
E|---3---3-2-1-0-1-2-3---3-2-1-0-1-2------------------------------------

do that 4 times then the chorus:

e|---------------------------------------------------------------------
b|---------------------------------------------------------------------
g|---4-x--5-5-5---4-x--5-5-5---4-x--5-5-5---4-x--5-5-5---4-x--5-5-5----
d|---4-x--5-5-5---4-x--5-5-5---4-x--5-5-5---4-x--5-5-5---4-x--5-5-5----
a|---2-x--3-3-3---2-x--3-3-3---2-x--3-3-3---2-x--3-3-3---2-x--3-3-3----
E|---------------------------------------------------------------------

e|---------------------------------------------------------------------
b|---------------------------------------------------------------------
g|---2-2-x-2--2-2-x---2-2-x-2--2-2-x---5-5-5-5-5/8-8-8-8-8-------------
d|---2-2-x-2--2-2-x---2-2-x-2--2-2-x---5-5-5-5-5/8-8-8-8-8---------- x4
a|---0-0-x-0--0-0-x---0-0-x-0--0-0-x---3-3-3-3-3/6-6-6-6-6-------------
E|---------------------------------------------------------------------

then,
e|----------------------------------------------------------------------
b|----------------------------------------------------------------------
g|----------------------------------------------------------------------
d|----------------------------------------------------------------------
a|-----2---------------1------------------------------------------------
E|---3---3-2-1-0-1-2-3---3-2-1-0-1-2------------------------------------
do this 8 times, at the end kurt slows the tempo.

if u have any questions plz email me at organised_confusion_@hotmail.com


Другие подборы этого исполнителя

Расскажи друзьям!




Привет, гитарист!

Пройди супер-курс по гитаре и порази всех своей игрой!

Забрать курс!
ВАМ ПОДАРКИ ОТ ПРОЕКТА
"ГИТАРНАЯ РЕВОЛЮЦИЯ"