Gitaristu.ru
Аккорды Табулатура Начинающим Мастер-класс Софт Видео Форум Блог
Новости Анонсы Гитары Гитаристы Статьи Аватарки Минусовки
Поиск





Популярные подборы




Настройка гитары






Главная > Аккорды > N > Nirvana

Аккорды
Nirvana
-
Old Age (табулатура)



Подбор прислал: gitaristu.ru
Old Age
_______________________

kurtdvidk@msn.com
__________________________

OLD AGE
					
(cut version)

Standard tuning


INTRO/PRE-CHORUS

E5		C

0----0---0-0---I---------------I
0----0---0-0---I-5--5-5--5-5---I
-------------0-I-5--5-5--5-5-0-I
2--2-2---2-2-0-I-5--5-5--5-5-0-I
2--2-2---2-2-0-I-3--3-3--3-3-0-I
0--0-0---0-0-0-I-------------0-I


VERSE

E5		C5

---------------I---------------I
---------------I---------------I
---------------I-5----5-----5-0I play twice
----2------2-0-I-5-------5----0I
2---2----2-2-0-I-3-------------I
0--------0---0-I---------------I

let ring



G5	    A5		  C	
----3-----I-------------I-------------I----------------I
----3-----I-2---2-------I-5----5----5-I----5-5-5-5-5---I
0---0-----I-2---2----2--I-5----5----5-I--5-5-5-5-5-5-0-I
0---0-----I-2---2----2--I-5----5----5-I--5-5-5-5-5-5-0-I
----------I-0---0----0--I-3----3----3-I--3-3-3-3-3-3-0-I
3---------I-------------I-------------I----------------I
let ring

(PRE-CHORUS:REPEAT INTRO)

CHORUS
A
---------------I0----0---0-0---I
2--2-2-2-2-2---I0----0---0-0---I
2--2-2-2-2-2-0-I-------------0-I
2--2-2-2-2-2-0-I2--2-2---2-2-0-I
0--0-0-0-0-0-0-I2--2-2---2-2-0-I
-------------0-I0--0-0---0-0-0-I


________________

kurtdvidk@msn.com
"I HAte Myself And Want To Die"
Расскажи друзьям!




Войдите, используя Ваш аккаунт:



Забыли пароль?
Зарегистрироваться

Привет, гитарист!

Пройди супер-курс по гитаре и порази всех своей игрой!

Забрать курс!
ВАМ ПОДАРКИ ОТ ПРОЕКТА
"ГИТАРНАЯ РЕВОЛЮЦИЯ"