Gitaristu.ru
Аккорды Табулатура Начинающим Мастер-класс Софт Видео
Новости Анонсы Гитары Гитаристы Статьи Аватарки Минусовки
Поиск



Популярные подборы




Настройка гитары






Главная > Аккорды > N > Nirvana

Аккорды
Nirvana
-
On A Plain bass (табулатура)

Не нашли аккорды к песне? Посмотрите на


Подбор прислал: gitaristu.ru
On a plain
Kurt Cobain


Verse
G|---------------------|x2
D|---------------------|
A|-5-55----------------|
D|------5-55-3-33-2320-|

G|------------------------------------|
D|------------------------------------|
A|-3-33-2-22-0-00-5555----------------|
D|---------------------5-55-3-33-2320-|

Chorus
G|--------------------|
D|--------------------|
A|-5-55------88888888-|
D|------5-55----------|

Interlude
G|---------------------------------------|
D|---------------------------------------|
A|---------------------------------------|
D|-3-33-333-2-22-222-7-77-777-5555055210-|

Kinda tricky, but a good song.

Другие подборы этого исполнителя

Расскажи друзьям!




Привет, гитарист!

Пройди супер-курс по гитаре и порази всех своей игрой!

Забрать курс!
ВАМ ПОДАРКИ ОТ ПРОЕКТА
"ГИТАРНАЯ РЕВОЛЮЦИЯ"