Gitaristu.ru
Аккорды Табулатура Начинающим Мастер-класс Софт Видео
Новости Анонсы Гитары Гитаристы Статьи Аватарки Минусовки
Поиск



Популярные подборы




Настройка гитары






Главная > Аккорды > N > Nirvana

Аккорды
Nirvana
-
Opinion (аккорды)

Не нашли аккорды к песне? Посмотрите на


Подбор прислал: gitaristu.ru




-----------------------------------------------------------------------
		            Song : Opinion	
                  Artist / Group : Nirvana
	              Written By : Kurt D. Cobain
                  Transcribed By : M.J.Ruggles (DaOrbity@aol.com)
		 Date Transribed : 21/1/1998
-----------------------------------------------------------------------

Notes
=====

I heard this on the radio, I don't think it was officialy released,
but I may be wrong. Played on the acoustic guitar. The other version


Tuning
======

E=E
A=A
D=D
G=G
B=B
E=E

{Normal, unusual for Nirvana }





Chord Diagrams
==============

   B5	  G5 	 D	F#5

||------|------|------|------|
||------|------|-7----|------|
||-4----|------|-7----|------|
||-4----|-5----|-7----|-4----|
||-2----|-5----|-5----|-4----|
||------|-3----|------|-2----|

^
nut




Opinion Chords
==============

{ This song is like lithium, the verses and choruses are the same }


-------------------------------------------------------------------

(B5) congratul.... (G5) You have (D) Won
(F#5) it's a years ..... (G5) of t.... (D) kind


then just repeat that, that's all.

-------------------------------------------------------------------


Другие подборы этого исполнителя

Расскажи друзьям!




Привет, гитарист!

Пройди супер-курс по гитаре и порази всех своей игрой!

Забрать курс!
ВАМ ПОДАРКИ ОТ ПРОЕКТА
"ГИТАРНАЯ РЕВОЛЮЦИЯ"